Cifra Club

Monstro Invisível

O Rappa

Tab de baixo: Principal
exibições 3.685
Base :
G|------------------------|
D|------------------------|
A|----------------4-6-4---|
E|----6--2--4--6-6-----6--|




Refrão :

G|---------------------------------------------|
D|---------------------------------------------|
A|--4-6/9-9-9-9988646--6-4-----4-6-4-----------|
E|-------------------------66-6------66-6/14\6-|
Composição: Falc / Lauro Farias / Marcelo Lobato / XandãoColaboração e revisão:
  • Jonathan Oliveira
  • Vinicius Neves
  • PAULO SANTOS

0 comentários

    mostrar mais comentários

    Conseguiu tocar?

    1tocaram0ainda não

    Grave um vídeo tocando Monstro Invisível e mande pra gente!

    00:00 / 00:00
    outros vídeos desta música
    repetirqualidadeautomática
    Outro vídeos desta música
      00:00 / 00:00
      automática
      OK