Cifra Club

Sentimento

O Rappa

Cifra: Principal (violão e guitarra)
Tom: Fm
[Intro] C#  Cm  Bbm  Cm  Fm  F4
        C#  Cm  Bbm  Cm  Fm  F4
        C#  Cm  Bbm  Cm  Fm  F4
        C#  Cm  Bbm  Cm  Fm  F4

         C# Cm   Bbm    Cm Fm  F4
E|---------------------------------------|
B|---------------------------------------|
G|-10-8-6---6-5-3--3-3-5--5-3------------|
D|---------------------------6-5-3-------|
A|--8-6-4---4-3-1--1-1-3-----------------|
E|---------------------------------------|

         C# Cm   Bbm    Cm Fm  F4
E|---------------------------------------|
B|---------------------------------------|
G|-10-8-6---6-5-3--3-3-5--5-3------------|
D|---------------------------6-5-3-------|
A|--8-6-4---4-3-1--1-1-3-----------------|
E|---------------------------------------|

         C# Cm   Bbm    Cm Fm  F4
E|---------------------------------------|
B|---------------------------------------|
G|-10-8-6---6-5-3--3-3-5--5-3------------|
D|---------------------------6-5-3-------|
A|--8-6-4---4-3-1--1-1-3-----------------|
E|---------------------------------------|

         C# Cm   Bbm    Cm Fm  F4
E|---------------------------------------|
B|---------------------------------------|
G|-10-8-6---6-5-3--3-3-5--5-3------------|
D|---------------------------6-5-3-------|
A|--8-6-4---4-3-1--1-1-3-----------------|
E|---------------------------------------|

    C#             Bbm
O amor é um mar difícil
     Cm                  Fm
Tão fácil de se ver e admirar
       C#           Bbm
Todo amor é um artifício
          Cm                 Fm
Que não acaba e que ninguém pode mudar

C#
  Guardo tanto tempo em mim
Bbm
  Tudo só pra te mostrar
     Cm               Fm
Que vai valer a pena de verdade

C#
  Guardo tanto tempo em mim
Bbm
  Tudo só pra te mostrar
           Cm                 Fm
Que o amor é tudo que me interessa

         C# Cm   Bbm    Cm Fm  F4
E|---------------------------------------|
B|---------------------------------------|
G|-10-8-6---6-5-3--3-3-5--5-3------------|
D|---------------------------6-5-3-------|
A|--8-6-4---4-3-1--1-1-3-----------------|
E|---------------------------------------|

         C# Cm   Bbm    Cm Fm  F4
E|---------------------------------------|
B|---------------------------------------|
G|-10-8-6---6-5-3--3-3-5--5-3------------|
D|---------------------------6-5-3-------|
A|--8-6-4---4-3-1--1-1-3-----------------|
E|---------------------------------------|

    C#             Bbm
O amor é um mar difícil
     Cm                  Fm
Tão fácil de se ver e admirar
       C#           Bbm
Todo amor é um artifício
          Cm                 Fm
Que não acaba e que ninguém pode mudar

C#
  Guardo tanto tempo em mim
Bbm
  Tudo só pra te mostrar
     Cm               Fm
Que vai valer a pena de verdade

C#
  Guardo tanto tempo em mim
Bbm
  Tudo só pra te mostrar
           Cm                 Fm
Que o amor é tudo que me interessa

C#
  Guardo tanto tempo em mim
Bbm
  Tudo só pra te mostrar
     Cm               Fm
Que vai valer a pena de verdade

C#
  Guardo tanto tempo em mim
Bbm
  Tudo só pra te mostrar
        Cm          Fm
Que o amor, que o amor

C#
  Guardo tanto tempo em mim
Bbm
  Tudo só pra te mostrar
     Cm               Fm
Que vai valer a pena de verdade

C#
  Guardo tanto tempo em mim
Bbm
  Tudo só pra te mostrar
           Cm                 Fm
Que o amor é tudo que me interessa

         C# Cm   Bbm    Cm Fm  F4
E|---------------------------------------|
B|---------------------------------------|
G|-10-8-6---6-5-3--3-3-5--5-3------------|
D|---------------------------6-5-3-------|
A|--8-6-4---4-3-1--1-1-3-----------------|
E|---------------------------------------|

         C# Cm   Bbm    Cm Fm  F4
E|---------------------------------------|
B|---------------------------------------|
G|-10-8-6---6-5-3--3-3-5--5-3------------|
D|---------------------------6-5-3-------|
A|--8-6-4---4-3-1--1-1-3-----------------|
E|---------------------------------------|
exibições 80.866
Acordes para:

    0 comentários

    mostrar mais comentários

    Conseguiu tocar?

    10 tocaram 5 ainda não

    Grave um vídeo tocando Sentimento e mande pra gente!

    00:00 / 00:00
    outros vídeos desta música
    repetir qualidade Automático
    Outros vídeos desta música
    00:00 / 00:00
    Automático
    OK