Cifra Club

Sentimento

O Rappa

Cifra: Principal (violão e guitarra)
Selo Cifra Club: esta cifra foi revisada para atender aos critérios oficiais da nossa Equipe de Qualidade.
tom: Bbm
[Intro] Db  Cm  Bbm  Cm  Fm  F4
        Db  Cm  Bbm  Cm  Fm  F4
        Db  Cm  Bbm  Cm  Fm  F4
        Db  Cm  Bbm  Cm  Fm  F4

[Intro Tab]

        Db   Cm  Bbm      Cm   Fm      F4
E|---------------------------------------|
B|---------------------------------------|
G|-10-8-6----6-5-3----3-3/5----5-3-------|
D|---------------------------------6-5-3-|
A|--8-6-4----4-3-1----1-1/3--------------|
E|---------------------------------------|

        Db   Cm  Bbm      Cm   Fm      F4
E|---------------------------------------|
B|---------------------------------------|
G|-10-8-6----6-5-3----3-3/5----5-3-------|
D|---------------------------------6-5-3-|
A|--8-6-4----4-3-1----1-1/3--------------|
E|---------------------------------------|

        Db   Cm  Bbm      Cm   Fm      F4
E|---------------------------------------|
B|---------------------------------------|
G|-10-8-6----6-5-3----3-3/5----5-3-------|
D|---------------------------------6-5-3-|
A|--8-6-4----4-3-1----1-1/3--------------|
E|---------------------------------------|

        Db   Cm  Bbm      Cm   Fm      F4
E|---------------------------------------|
B|---------------------------------------|
G|-10-8-6----6-5-3----3-3/5----5-3-------|
D|---------------------------------6-5-3-|
A|--8-6-4----4-3-1----1-1/3--------------|
E|---------------------------------------|

[Refrão]

    Db           Bbm
O amor é um artifício
          Cm 
Tão fácil    
              Fm
De se ver e admirar
       Db           Bbm
Todo amor é um artifício
              Cm
Que não acaba 
                 Fm
E que ninguém pode mudar

[Primeira Parte]

Db
   Guardo tanto tempo em mim
Bbm
    Tudo só pra te mostrar
     Cm                     Fm
Que vai valer a pena de verdade

Db
   Guardo tanto tempo em mim
Bbm
    Tudo só pra te mostrar
        Cm                  Fm
Que o amor é tudo que me interessa

( Db  Cm  Bbm  Cm  Fm )
( Db  Cm  Bbm  Cm  Fm )

[Refrão]

    Db           Bbm
O amor é um artifício
          Cm 
Tão fácil    
              Fm
De se ver e admirar
       Db           Bbm
Todo amor é um artifício
              Cm
Que não acaba 
                 Fm
E que ninguém pode mudar

[Primeira Parte]

Db
   Guardo tanto tempo em mim
Bbm
    Tudo só pra te mostrar
     Cm                     Fm
Que vai valer a pena de verdade

Db
   Guardo tanto tempo em mim
Bbm
    Tudo só pra te mostrar
        Cm                  Fm
Que o amor é tudo que me interessa

Db
   Guardo tanto tempo em mim
Bbm
    Tudo só pra te mostrar
     Cm                     Fm
Que vai valer a pena de verdade

Db
   Guardo tanto tempo em mim
Bbm
    Tudo só pra te mostrar
        Cm    
Que o amor 
        Fm
Que o amor

[Solo] Db  Bbm  Cm  Fm
       Db  Bbm  Cm  Fm

[Primeira Parte]

Db
   Guardo tanto tempo em mim
Bbm
    Tudo só pra te mostrar
     Cm                     Fm
Que vai valer a pena de verdade

Db
   Guardo tanto tempo em mim
Bbm
    Tudo só pra te mostrar
        Cm                  Fm
Que o amor é tudo que me interessa

[Final] Db  Cm  Bbm  Cm  Fm 
        Db  Cm  Bbm  Cm  Fm 
        Db  Cm  Bbm  Cm  Fm        

        Db   Cm  Bbm      Cm   Fm      F4
E|---------------------------------------|
B|---------------------------------------|
G|-10-8-6----6-5-3----3-3/5----5-3-------|
D|---------------------------------6-5-3-|
A|--8-6-4----4-3-1----1-1/3--------------|
E|---------------------------------------|

        Db   Cm  Bbm      Cm   Fm      F4
E|---------------------------------------|
B|---------------------------------------|
G|-10-8-6----6-5-3----3-3/5----5-3-------|
D|---------------------------------6-5-3-|
A|--8-6-4----4-3-1----1-1/3--------------|
E|---------------------------------------|
00:00 / 00:00
Outros vídeos desta música
Repetir
Outros vídeos desta música
149.861 exibições
    • ½ Tom
    • Am
    • Bbm
    • Bm
    • Cm
    • C#m
    • Dm
    • Ebm
    • Em
    • Fm
    • F#m
    • Gm
    • G#m
  • Adicionar à lista

Afinação da cifra

Afinador online

    0 comentários

    Ver todos os comentários

    Entre para o Cifra Club PRO

    Tenha acesso a benefícios exclusivos no App e no Site

    • Chega de anúncios

    • Mais recursos no app do Afinador

    • Atendimento Prioritário

    • Aumente seu limite de lista

    • Ajude a produzir mais conteúdo

    00:00 / 00:00

    Cifra Club Pro

    Aproveite o Cifra Club com benefícios exclusivos e sem anúncios
    Cifra Club Pro
    Aproveite o Cifra Club com benefícios exclusivos e sem anúncios
    OK