Cifra Club

Zarôia

O Surto

Cifra: Principal (violão e guitarra)
Selo Cifra Club: esta cifra foi revisada para atender aos critérios oficiais da nossa Equipe de Qualidade.
tom: A
Intro: Am G
E|-------12/13-12--12-13-12-10----10/12-10---------------
B|-10-10-----------------------13------------------------
G|-------------------------------------------------------
D|-------------------------------------------------------
A|-------------------------------------------------------
E|-------------------------------------------------------

E|-------------------------------------------------------
B|-------------------------------------------------------
G|-------------------------------------------------------  2x
D|-------------------------------------------------------
A|------7/8-7--7-8-7-5---5/7-5--5-7-5--------------------
E|--5-5----------------8--------------8-7-5--------------

Am
Quando eu a encontrei pela primeira vez
C                      G
 Senti de longe que seria meu grande amor
     F             D
Mas quando eu cheguei,
F             D
Foi que eu notei
             Am
Que ela é zarôia!
                   C
Mas eu gosto dela mesmo assim

Clichê

E|-------8-------6------4--------------------------------
B|-------------------------------------------------------
G|---/10----10/8----8/6----------------------------------
D|-------------------------------------------------------
A|-------------------------------------------------------
E|-------------------------------------------------------
            G              D
Eu sou pra ela duas vezes mais que eu sou
F           D     F       D
Nós dois fazemos um belo trio

 Refrão 2x

Am
 Zarôia zambeta, zambeta zarôia
C                 G
 Quem vê cara não vê coração
Am
 Zarôia zambeta, zambeta zarôia
C                      G             Am
 O meu amor enxerga em qualquer direção

Intro
E|-------------------------------------------------------
B|-------------------------------------------------------
G|-------------------------------------------------------  2x
D|-------------------------------------------------------
A|------7/8-7--7-8-7-5---5/7-5--5-7-5--------------------
E|--5-5----------------8--------------8-7-5--------------

Am
 Parece estranho mas dá pra entender
C                             G
 Que existe sempre um outro igual a você
       F         D    F            D
Mas de óculos escuro, dá pra esconder
         Am
Ela é zarôia!
                   C
Mas eu gosto dela mesmo assim

Clichê

E|-------8-------6------4--------------------------------
B|-------------------------------------------------------
G|---/10----10/8----8/6----------------------------------
D|-------------------------------------------------------
A|-------------------------------------------------------
E|-------------------------------------------------------
          G                D
Olhar de leste a oeste de uma vez só
    F      D        F         D
Sensação igual você nunca sentiu

Refrão 2x

Am
 Zarôia zambeta, zambeta zarôia
C                 G
 Quem vê cara não vê coração
Am
 Zarôia zambeta, zambeta zarôia
C                      G             Am
 O meu amor enxerga em qualquer direção

Iô iô iô...

Solo: (Am C G Am C G)

E|---------------11--------------------------------------
B|--10b13--10/13----13-----------------------------------
G|---------------------12b14-----------------------------
D|---------------------------12-10/12b13-----------------
A|-------------------------------------------------------
E|-------------------------------------------------------

Palhetar várias vezes aqui           4x
E|-------------------------------------------------------
B|-------------------------------------------------------
G|-------------------------------------------------------
D|--12/14------------------------10-12b14rb12------------
A|-------------------------10-12-------------------------
E|-------------------------------------------------------

E|-------------------------------------------------------
B|------13-------12--------10-------8-------10------8----
G|-------------------------------------------------------
D|--/13----13/12-----12/10-----10/8----8/10----10/8------
A|-----------------------------------------------------7-
E|-------------------------------------------------------

E|-------------------------/12-/12-/12--12-13-14-15-16-17
B|-----12---12---12--12----------------------------------
G|-------------------------------------------------------
D|-/12---12---12---12------------------------------------
A|-------------------------------------------------------
E|----------------------0--------------------------------
                       A.L

Refrão 2x

Am
 Zarôia zambeta, zambeta zarôia
C                 G
 Quem vê cara não vê coração
Am
 Zarôia zambeta, zambeta zarôia
C                      G             Am
 O meu amor enxerga em qualquer direção

E|-------------------------------------------------------
B|-------------------------------------------------------
G|-------------------------------------------------------  2x
D|-------------------------------------------------------
A|------7/8-7--7-8-7-5---5/7-5--5-7-5--------------------
E|--5-5----------------8--------------8-7-5--------------

E|-------12/13-12--12-13-12-10----10/12-10---------------
B|-10-10-----------------------13------------------------
G|-------------------------------------------------------
D|-------------------------------------------------------
A|-------------------------------------------------------
E|-------------------------------------------------------

Iô iô iô...
    G
Zambeta iá iá iá...
00:00 / 00:00
Outros vídeos desta música
Repetir
Outros vídeos desta música
23.661 exibições
    • ½ Tom
    • A
    • Bb
    • B
    • C
    • Db
    • D
    • Eb
    • E
    • F
    • F#
    • G
    • Ab
  • Adicionar à lista

Afinação da cifra

Afinador online

    0 comentários

    Ver todos os comentários

    Entre para o Cifra Club PRO

    Tenha acesso a benefícios exclusivos no App e no Site

    • Chega de anúncios

    • Mais recursos no app do Afinador

    • Atendimento Prioritário

    • Aumente seu limite de lista

    • Ajude a produzir mais conteúdo

    00:00 / 00:00

    Cifra Club Pro

    Aproveite o Cifra Club com benefícios exclusivos e sem anúncios
    Cifra Club Pro
    Aproveite o Cifra Club com benefícios exclusivos e sem anúncios
    OK