Cifra Club

Aprenda

Diretos

O Terno

Cifra: Principal (violão e guitarra)
tom: G
[Intro] C  Am  Em  Eb  Dm  
        C  Dm  C  Am  Bb

C                 Dm   F
Tanta gente a estudar
                      F7
Que só quer falar bonito 
C                Dm   ‎
Que não quer comunicar
F                     Dm ‎
Que não quer ser entendido
C                   Dm 
Por que não podemos ser
F                   F7
Ser um pouco mais diretos?
C              Dm
Você quer sofisticar
F                  Em   Am  Bb
Eu prefiro um papo reto

C
Vamos ser diretos
             Dm  ‎
A vida não é tão longa assim
           F          ‎
Então se você gosta de mim ‎
                Em          Am   Bb 
Vai em frente e diga, baby (diga pra mim)

C
Vamos ser diretos
             Dm  ‎
A vida não é tão longa assim
           F          ‎
Então se você gosta de mim ‎
                Em          Am   Bb  
Vai em frente e diga, baby (diga pra mim)

C                  Dm
Tanta gente a se esforçar
F                       Em  F
‎Pra ser igual a todo mundo
C                   Dm
‎Por trás da cara de mal
F                   EmF
Vejo alguém tão inseguro ‎
C                   Dm 
Por que não podemos ser
F                    Em     F
‎Ser um pouco mais sinceros?
C                  Dm
‎Sem ter pressa pra julgar
     F              Em   Am  Bb  C
Sem temer se ver de perto

C
Vamos ser diretos
             Dm  ‎
A vida não é tão longa assim
           F          ‎
Então se você gosta de mim ‎
                Em          Am   Bb  C
Vai em frente e diga, baby (diga pra mim)

C
Vamos ser diretos
             Dm  ‎
A vida não é tão longa assim
           F          ‎
Então se você gosta de mim ‎
                Em          Am   Bb  C
Vai em frente e diga, baby (diga pra mim)

[Solo] 

E|----3-2-----5-4-3-2-1-0-------------------|
B|1-4-----4-3-------------4-3-2-------------| 
G|------------------------------------------|
D|------------------------------------------|
A|------------------------------------------|
E|------------------------------------------|

E|----3-2-----5-4-3-2-1-0-------------------|
B|1-4-----4-3-------------4-3-2-------------| 
G|------------------------------------------|
D|------------------------------------------|
A|------------------------------------------|
E|------------------------------------------|

E|------------------------------------------|
B|------------------------------------------|
G|------------2-1-0-------------------------|
D|--1-5-4-1-0-------4-3-2-1-0---------------|
A|3---------------------------4-3-----------|
E|------------------------------------------|

E|------------------------------------------|
B|------------------------------------------|
G|------------2-1-0-------------------------|
D|--1-5-4-1-0-------4-3-2-1-0---------------|
A|3---------------------------4-3-----------|
E|------------------------------------------|

C                   Dm 
Por que não podemos ser
F                    Em     F
‎Ser um pouco mais sinceros?
C                  Dm
‎Sem ter pressa pra julgar
     F              Em    Am  Bb
Sem temer se ver de perto

C
Vamos ser diretos
             Dm  ‎
A vida não é tão longa assim
           F          ‎
Então se você gosta de mim ‎
                Em          Am   Bb 
Vai em frente e diga, baby (diga pra mim)

C
Vamos ser diretos
             Dm  ‎
A vida não é tão longa assim
           F          ‎
Então se você gosta de mim ‎
                Em          Am   Bb 
Vai em frente e diga, baby (diga pra mim)

Am       Bb  C
Diga pra mim
Am       Bb  C
Diga pra mim

( Am  Bb  C  C7 )
Composição de Tim Bernardes
Colaboração e revisão:
  • Thiago Gabriel
127 exibições
    • ½ Tom
    • A
    • Bb
    • B
    • C
    • Db
    • D
    • Eb
    • E
    • F
    • F#
    • G
    • Ab
  • Adicionar à lista

    0 comentários

    Ver todos os comentários

    Conseguiu tocar?

    0 Tocaram 0 Ainda não

    Grave um vídeo tocando Diretos e nos envie!

    00:00 / 00:00
    Outros vídeos desta música
    Repetir Qualidade Automático
    Outros vídeos desta música
    00:00 / 00:00
    Automático

    Cifra Club Pro

    Aproveite o Cifra Club com benefícios exclusivos e sem anúncios
    Cifra Club Pro
    Aproveite o Cifra Club com benefícios exclusivos e sem anúncios
    OK