Cifra Club

Aprenda

Harmonium

O Terno

Tab de baixo: Principal
[Intro]

G|---------------------------|
D|---------------------------|
A|-7--7----7---7-7-7-7-7-7-7-|
E|------0--------------------|

G|----------------------------------------|
D|------------------6-9-8--8-7--7/9---9---|
A|--7-6--6\4--4---7-----------------------|
E|--------------7-------------------7---7-|

[Parte 1]
                        
G|---------------------------|
D|-9/14-----14--14--12-12-12-|
A|-----14-----14-------------|
E|-------12------------------|

                                      virada
G|---------------------------------------------|
D|-12--12-11------11--11-10-10-10--10/14-12-10-|
A|---12-----12------11-------------------------|
E|------------12-------------------------------|
                                                                                                  
G|------------------------------------------|
D|-14------14--14--12-12-12----12--12-11----|
A|---14------14--------------14--14----12---|
E|-----12--------------------------------12-|
                     virada
G|------------------------------|
D|-11--11-10-10-10--10/14-12-10-|
A|---11-------------------------|
E|------------------------------|

G|-------------------------------------------|
D|---7-6-4-----------------------4-6-7-6-----|
A|-0------7-6-4-----4-6-7-6--4--4--------7-6-|
E|--------------7--7--------7----------------|

G|------------------------|
D|--------4-6-4-----------|
A|-6-4-6-7------7-6-4-----|
E|--------------------7-5-|

G|-----------------------------------------------------|
D|-7-6-4-----------------------------------------------|
A|-------7-6-4----4-6-7-6----444444444444--6666666--66-|
E|------------7--7--------7----------------------------|

[Parte 2]
                  
G|------------------------------------------|
D|-9/14-----14--14--12-12-12--12--12-11-----|
A|-----14-----14----------------12-----12---|
E|-------12------------------------------12-|

                       virada    
G|------------------------------|
D|-11--11-10-10-10--10-14-12-10-|
A|---11-------------------------|
E|------------------------------|

G|------------------------------------------|
D|-14-----14--14--12-12-12----12--12-11-----|
A|---14-----14--------------14--14-----12---|
E|-----12--------------------------------12-|
                         virada
G|--------------------------------|
D|---11--11-10-10-10--10-14-12-10-|
A|-12--12-------------------------|
E|--------------------------------| 

G|---------------------------------------|
D|---7-6-4-------------------------5/8-9-|
A|-0------7-6-4-----4-6-7-6---4-7--------|
E|--------------7--7--------7------------|

[Solo]

G|-----13----13--13-14-14/16---14-13---|
D|-9/14----14-----------------------16-|
A|-------14----------------------------|
E|-------------------------------------|

G|----------13h14-13------------------|
D|-16-14------------14h16-14----------|
A|-------16------------------16-15-14-|
E|------------------------------------|

G|--------18--18-20-21-|
D|---18-21-------------|
A|-19------------------|
E|---------------------|

G|-20-18-18-----------------------------------------16\-|
D|----------18-19-21-19-18------------------16-18-19----|
A|--------------------------18-16---19-18-16------------|
E|--------------------------------19--------------------|

G|-----------------------9-------9------9------9--|
D|---------------------/9-9-----9-9----9-9----9-9-|
A|-777777777777777777-7-----555-----444----333----|
E|------------------------------------------------| 

G|-------14------------14-----------------16-------------16-|
D|-11--11---11--11---11----11--------13------13---13---13---|
A|---12-------12---12---------12-14----14-------14---14-----|
E|----------------------------------------------------------|

G|-------------14-13-11--------14-13----------------16-|
D|-13---11--11-----------11--11------11--13--13--13----|
A|---14---12---------------12--------------14--14------|
E|-----------------------------------------------------|

[Solo]

G|-21-20-18------------------------------------|
D|----------21-18----19-19h21-19-18------------|
A|---------------19----------------19/21-19\14-|
E|---------------------------------------------|

G|----------------------------16-|
D|------13-14--14--14-13h14/16---|
A|-14-16---------16--------------|
E|-------------------------------|

G|-18-20-21-20-18-----------------------------------|
D|---------------21-18----19—19h21-19-18------------|
A|--------------------19----------------19/21-19\14-|
E|--------------------------------------------------|

G|-------------------------------16--16-16-16-16-16\-|
D|-------13-14--14---14--13h14/16--------------------|
A|-14-16-----------16---------------- ---------------|
E|---------------------------------------------------|

[Final]

G|-9-8-6---------------------------------------------|
D|------9-6----7—7h9-7-6----------4h6-44----4h6-44---|
A|----------7------------7/9-7\2--------7---------7--|
E|---------------------------------------------------|

G|-----------------------------|
D|-4h6-4--4h6-4---4----------2-|
A|--------------7--------2/4---|
E|-----------------------------|
Composição de Tim Bernardes
Colaboração e revisão:
  • marcos lima
6 exibições

0 comentários

Mostrar mais comentários

Conseguiu tocar?

0 Tocaram 0 Ainda não

Grave um vídeo tocando Harmonium e mande pra gente!

00:00 / 00:00
outros vídeos desta música
repetir qualidade Automático
Outros vídeos desta música
00:00 / 00:00
Automático

Cifra Club Pro

Aproveite o Cifra Club com benefícios exclusivos e sem anúncios
Cifra Club Pro
Aproveite o Cifra Club com benefícios exclusivos e sem anúncios
OK