Cifra Club

Aprenda

Lua Cheia

O Terno

Cifra: Principal (violão e guitarra)
Tom: G
[Intro]

E|-10/12-10-15-12-10-12-10--7-10-7--|
B|-10/12-10-15-12-10-12-10--7-10-7--|
G|----------------------------------|
D|----------------------------------|
A|----------------------------------|
E|----------------------------------|

Em                  F7M/F#
Acho que algum feiticeiro
            F7M                 Em
Jogou uma praga qualquer sobre mim
Em           F7M/F#
Sinto-me alucinado
             F7M                Em
Sonhando acordado algum sonho ruim

C7M                    G7M
Vejo os planetas colidirem no universo
         F
Em plena noite de São Paulo
         Em
Em cor e forma surreal

    F
Lua
      D#
Cheia
   D# C#
Conjunção
    G
Astral

E|-10/12-10-15-12-10-12-10--7-10-7--|
B|-10/12-10-15-12-10-12-10--7-10-7--|
G|----------------------------------|
D|----------------------------------|
A|----------------------------------|
E|----------------------------------|

Em              F7M/F#
A superfície da terra
          F7M                 Em
Exala um calor que me deixa febril
  Em             F7M/F#
Olhos refletindo marte
             F7M                  Em
O caos do planeta está dentro de mim

C7M                   G7M
Surge tal como um gigante
               F
No fim do horizonte
               Em
Tingindo a avenida central

    F
Lua
      D#
Cheia
   D# C#
Conjunção
    G
Astral

E|-10/12-10-15-12-10/12/10--7/10/7--|
B|-10/12-10-15-12-10/12/10--7/10/7--|
G|----------------------------------|
D|----------------------------------|
A|----------------------------------|
E|----------------------------------|

Em                  F7M/F#
Minha imagem num espelho
          F7M                   Em
Um rio vermelho que escorre de mim
Em              F7M/F#
Como que hipnotizado
              F7M                   Em
Só mais um cigarro, estou perto do fim

C7M                   G7M
Os nervos à flor da pele
               F
Euforia, incerteza
             Em
Demência e desejo animal

    F
Lua
      D#
Cheia
   D# C#
Conjunção
    G
Astral

( E5  E5  F5  F5 )

E|---------------------------------------------------------------------------------|
B|---------------------------------------------------------------------------------|
G|-----9-9-7--9-7------10-9-7------------9-9-9-9-7---7/9-7-------10-9-7------------|
D|----------9-----7-----------10-9-7---------------9-------7------------10-9-7-----|
A|-7-7-------------8-8---------------7-7---------------------8-8-------------------|
E|---------------------------------------------------------------------------------|

E|-----------------------------------------|
B|-----------------------------------------|
G|-----------------------------------------|
D|-----2-0---2-0--------3-2-0--------------|
A|---------2-----2------------3-2-0--------|
E|-0-0--------------1-1--------------0-0---|

E5   F/E             G/E    F/E
Quem que me faz delirar?
E5   F/E             G/E    F/E
Quem que me tira do chão?
E5   F/E             G/E    F/E
Quem me enfeitiça e me engole?
E5   F/E             G/E    F/E
Lua, me conte o seu nome

( E5  F/E  G/E  F/E )

E|---------------------------------------------------------------------------------|
B|---------------------------------------------------------------------------------|
G|-----9-9-7--9-7------10-9-7------------9-9-9-9-7---7/9-7-------10-9-7------------|
D|----------9-----7-----------10-9-7---------------9-------7------------10-9-7-----|
A|-7-7-------------8-8---------------7-7---------------------8-8-------------------|
E|---------------------------------------------------------------------------------|
Composição de Tim Bernardes
Colaboração e revisão:
  • Thiago Gabriel
  • Gabriel Morais
  • Mikael Marmorato
1.925 exibições
    • ½ Tom
    • A
    • Bb
    • B
    • C
    • Db
    • D
    • Eb
    • E
    • F
    • F#
    • G
    • Ab
  • Adicionar à lista

    0 comentários

    Mostrar mais comentários

    Conseguiu tocar?

    4 Tocaram 0 Ainda não

    Grave um vídeo tocando Lua Cheia e mande pra gente!

    00:00 / 00:00
    outros vídeos desta música
    repetir qualidade Automático
    Outros vídeos desta música
    00:00 / 00:00
    Automático

    Cifra Club Pro

    Aproveite o Cifra Club com benefícios exclusivos e sem anúncios
    Cifra Club Pro
    Aproveite o Cifra Club com benefícios exclusivos e sem anúncios
    OK