Cifra Club

Aprenda

Insane

Obituary

Cifra: Principal (violão e guitarra)
tom: E
Album: frozen in time



Version 1.0 -  31/03/2007

Transcribed By: inrwtl

Email:          *


.  - palm mute           /  - slide up to
\  - slide down to       ~  - vibrato
p  - pull off            Suffixes for bend
t  - tap                 f  - full bend    h - half bend
ph - pinched harmonic    q  - quarter bend t - tap bend
*  - see comment         ^  - Hold bend    r release bend
,  - slight palm mute    () - ghost note, sustained note
"  - tremolo note         - Trill

Tuning D G C F A D


Riff 1

|-------------------------------------------------------------------|
|-------------------------------------------------------------------|
|-------------------------------------------------------------------|
|---------------------------------------3---------------------------|
|-2-------2-------2-3-2-------2-------2-1-2-------------------------|
|-0-0-0-0-0-0-0-0-0-1-0-0-0-0-0-0-0-0-0---0-------------------------|
    . . .   . . .       . . .   . . .


Riff 1 - fill 1

|-------------------------------------------------------------------|
|-------------------------------------------------------------------|
|-------------------------------------------------------------------|
|-------------------------------------------------------------------|
|-2-------2-------2-3-2-----2-----2---------------------------------|
|-0-0-0-0-0-0-0-0-0-1-0-0-0-0-0-0-0---------------------------------|
    . . .   . . .       . .   . .


Riff 2

|-------------------------------------------------------------------|
|-------------------------------------------------------------------|
|-------------------------------------------------------------------|
|-3-4----3-4-------------3-4----3-4-----------3-4----3-4------------|
|-1-2----1-2-------------1-2----1-2----0-0-0--1-2----1-2------------|
|-1-2----1-2----0-0-0-0--1-2----1-2----0-0-0--1-2----1-2----0-0-0-0-|
                . . . .                . . .                . . . .

|-------------------------------------------------------------------|
|-------------------------------------------------------------------|
|-------------------------------------------------------------------|
|-3-4----3-4--------------------------------------------------------|
|-1-2----1-2----3-3-3--3-3-3----------------------------------------|
|-1-2----1-2----1-1-1--1-1-1----------------------------------------|



Riff 3

|-------------------------------------------------------------------|
|-------------------------------------------------------------------|
|-------------------------------------------------------------------|
|-------------------------------------------------------------------|
|---------------------------------------------------------6-6-6-6-5-|
|-0-0-0-0-3-3-3-3-4-4-4-4-1-1-1-1-6-6-6-6-5-5-5-5-3-3-3-3-----------|

|-------------------------------------------------------------------|
|-------------------------------------------------------------------|
|-------------------------------------------------------------------|
|-------------------------------------------------------------------|
|-5-5-5---------4-4-4-4-3-3-3-3-------------------------------------|
|-------1-1-1-1-----------------------------------------------------|



Riff 4

|-------------------------------------------------------------------|
|-------------------------------------------------------------------|
|-------------------------------------------------------------------|
|-------------------------------------6-----------------------------|
|-2------3-2----5-6-3-2------3-2----5-4-5---------------------------|
|-0------1-0----3-4-1-0------1-0----3-4-3---------------------------|



Riff 4 - Fill 1 (After Riff 5)

|-------------------------------------------------------------------|
|-------------------------------------------------------------------|
|-------------------------------------------------------------------|
|-------------------------------------6-----------------------------|
|-2------3-2----5-6-3-2------3-2----5-4----2------------------------|
|-0------1-0----3-4-1-0------1-0----3-4----0------------------------|



Riff 5

|-------------------------------------------------------------------|
|-------------------------------------------------------------------|
|-------------------------------------------------------------------|
|-------------------------4-------------------------6-6-6-----------|
|-2-----3/5-----------3---2---3-2-----3/5-----------4-4-4-----------|
|-0-0-0-1/3-0-0-0-0-0-1-0---0-1-0-0-0-1/3-0-0-0-0-0-4-4-4-----------|
    . .     . . . . .   .   .     . .     . . . . .


END
Composição de Allen West / Donald Tardy
1.053 exibições
    • ½ Tom
    • A
    • Bb
    • B
    • C
    • Db
    • D
    • Eb
    • E
    • F
    • F#
    • G
    • Ab
  • Adicionar à lista

    0 comentários

    Ver todos os comentários

    Conseguiu tocar?

    0 Tocaram 0 Ainda não

    Grave um vídeo tocando Insane e nos envie!

    00:00 / 00:00
    Outros vídeos desta música
    Repetir Qualidade Automático
    Outros vídeos desta música
    00:00 / 00:00
    Automático

    Cifra Club Pro

    Aproveite o Cifra Club com benefícios exclusivos e sem anúncios
    Cifra Club Pro
    Aproveite o Cifra Club com benefícios exclusivos e sem anúncios
    OK