Cifra Club

Can´t Repeat (versão 3)

The Offspring

Cifra: Principal (violão e guitarra)
tom: C
. = palm mute
x = abafado

Intro:

A5
E|------------------------------------|
B|------------------------------------|
G|------------------------------------|
D|-------7-7-7--7-7-7---7-7-7---7-7-7-|
A|-------7-7-7--7-7-7---7-7-7---7-7-7-|
E|-5:----5-5-5--5-5-5---5-5-5---5-5-5-|
         |-------drive + phaser-------|

Riff 1:

E|----------------------|----------------------|---------------------|---------------------|
B|----------------------|----------------------|---------------------|---------------------|
G|-14-12-12-9-9-7-7-9---|-14-12-12-9-9-7-7-9---|-17-16-14-12-14------|-17-16-14-12-14--14--|
D|--x--x--x-x-x-x-x-x---|--x--x--x-x-x-x-x-x---|--x--x--x--x--x------|--x--x--x--x--x---x--|
A|-12-10-10-7-7-5-5-7---|-12-10-10-7-7-5-5-7---|-15-14-12-10-12------|-15-14-12-10-12--10--|
E|----------------------|----------------------|---------------------|---------------------|
 |                                                                                           |
E|----------------------|----------------------|----------------------|----------------------|
B|----------------------|----------------------|----------------------|----------------------|
G|----------------------|-5--------------------|----------------------|----------------------|
D|-7--------------------|-5--------------------|-3--------------------|-5--------------------|
A|-7--------------------|-3--------------------|-3--------------------|-5--------------------|
E|-5--------------------|----------------------|-1--------------------|-3--------------------|

Verse:
   A5                          C5
e|--------------------------------------------------------|
B|--------------------------------------------------------|
G|-----------------------------5-5-5--5-5-5--5-5-5--5-5-5-|
D|-7-7-7--7-7-7--7-7-7--7-7-7--5-5-5--5-5-5--5-5-5--5-5-5-|
A|-7-7-7--7-7-7--7-7-7--7-7-7--3-3-3--3-3-3--3-3-3--3-3-3-|
E|-5-5-5--5-5-5--5-5-5--5-5-5-----------------------------|
PM . .    . .    . .    . .    . .    . .    . .    . .

   F5                          G5
e|--------------------------------------------------------|
B|--------------------------------------------------------|
G|--------------------------------------------------------|
D|-3-3-3--3-3-3--3-3-3--3-3-3--5-5-5--5-5-5--5-5-5--5-5-5-|
A|-3-3-3--3-3-3--3-3-3--3-3-3--5-5-5--5-5-5--5-5-5--5-5-5-|
E|-1-1-1--1-1-1--1-1-1--1-1-1--3-3-3--3-3-3--3-3-3--3-3-3-|
PM . .    . .    . .    . .    . .    . .    . .    . .


Chorus:

   A5 C5 F5 G5

Riff 1

Verse

Chorus

Riff 1




Bridge 1:
   A5
e|----------------------------|
B|----------------------------|
G|----------------------------|  
D|-7-7-7--7-7-7--7-7-7--7-7-7-|
A|-7-7-7--7-7-7--7-7-7--7-7-7-|
E|-5-5-5--5-5-5--5-5-5--5-5-5-|
PM . .    . .    . .    . .

Bridge 2:

e|-------------------------------------------------------------|
B|-------------------------------------------------------------|
G|------------------------5-5------5-----------------------5---|
D|-------------7-7------7-5-5------5-3-3---3---3---3-5-----5-5-|
A|-------------7-7------7-3-3------3-3-3---3---3---3-5-----3-5-|
E|-------------5-5------5------------1-1---1---1---1-3-------3-|
 \ pick slide /

Chorus



Bridge 3:

e|------------------------------------------------|
B|------------------------------------------------|
G|------------4--4-4-4-4-5-5-7-7-9-9-12-12--------|
D|-7--7-7-7-7-x--x-x-x-x-x-x-x-x-x-x--x--x--------|
A|-x--x-x-x-x-2--2-2-2-2-3-3-5-5-7-7-10-10--------|
E|-5--5-5-5-5-------------------------------------|

e|-----------------------|
B|-----------------------|
G|-17-16--17-16-14-12-14-|
D|--x--x--x--x--x--x--x--|
A|-15-14--15-14-12-10-12-|
E|-----------------------|



End:

e|------------------------------------------------|
B|------------------------------------------------|
G|------------------------------------------------|
D|-7-7-7---7-7-7---7-7-7---7-7-7---7-7-7---7------|
A|-7-7-7---7-7-7---7-7-7---7-7-7---7-7-7---7------|
E|-5-5-5---5-5-5---5-5-5---5-5-5---5-5-5---5------|
   . .     . .     . .     . .     . .


I woke the other day
And saw my world has changed
The past is over but tomorrow's wishful thinking
I can't hold onto what's been done
I can't grab onto what's to come
And I'm just wishing I could stop, but

Life goes on
Come of age
Can't hold on
Turn the page

Time rolls on
Wipe these eyes
Yesterday laughs
Tomorrow cries

Memories are bittersweet
The good times we can't repeat
Those days are gone and we can never get them back
Now we must move ahead
Despite our fear and dread
We're all just wishing we could stop, but

Life goes on
Come of age
Can't hold on
Turn the page

Time rolls on
Wipe your eyes
Yesterday laughs
Tomorrow cries

With all our joys and fears
Wrapped in forgotten years
The past is laughing as today just slips away
Time tears down what we've made
And sets another stage
And I'm just wishing we could stop

Life goes on
Come of age
Can't hold on
Turn the page

Time rolls on
Wipe these eyes
Yesterday laughs
Tomorrow cries
Compositor não encontrado.
10.553 exibições
    • ½ Tom
    • A
    • Bb
    • B
    • C
    • Db
    • D
    • Eb
    • E
    • F
    • F#
    • G
    • Ab
  • Adicionar à lista

    0 comentários

    Ver todos os comentários

    Conseguiu tocar?

    0 Tocaram 0 Ainda não

    Grave um vídeo tocando Can´t Repeat (versão 3) e nos envie!

    00:00 / 00:00
    Outros vídeos desta música
    Repetir Qualidade Automático
    Outros vídeos desta música
    00:00 / 00:00
    Automático

    Cifra Club Pro

    Aproveite o Cifra Club com benefícios exclusivos e sem anúncios
    Cifra Club Pro
    Aproveite o Cifra Club com benefícios exclusivos e sem anúncios
    OK