Cifra Club

Have You Ever

The Offspring

Tab de baixo: Principal
intro:
G--------------------------------------------------------------------------
D--------------------------------------------------------------------------
A--7-------------------7------------------7------------------7-------------
E----0--0--0--0--0--0----0--0--0--0--0--0---0--0--0--0--0--0---0--0--0--0--

first "falling" part:                             (2x)         All other
"falling" parts and Chorus ("some days my soul's...): (2x)
G---------------------------------I  G--------------------------------------I
D--------------------------------*I  D-------------------------------------*I
A-------7-----7------------5-----*I  A------------7------3--------------5--*I
E--------------------3------------I  E---------------------------3----------I

verses:                                                                
(2x)
G------------------------------------------------------------------------------------------I
D-----------------------------------------------------------------------------------------*I
A--------------------------------------------------5--5--5--5--5--5--5--5--7--7--7--10--9-*I
E--0--0--0--0--0--0--0--0--3--3--3--3--3--3--3--3------------------------------------------I

solo bit in the middle:                                 (7x)
G-----------------------------------------------------------------------------------I
D----------------------------------------------------------------------------------*I
A--7--7--7--7------------5--5--5--5--7--7--7--7--3--3--3--3--5--5------------------*I
E-------------3--3--3--3-------------------------------------------0--2--3--2--0----I

7th time, play this after the stuff above:
G-----------------------------------------------------------I
D-----------------------------------------------------------I
A--3--3--3--3--5--5---------------3--3--3--3--5-------------I
E-------------------0--2--3--2--0---------------------------I

That's it! Listen to the song for timing, etc. Order goes something like
this:
Intro          1x
Falling      2x
Verse        2x
Chorus/
  Falling     4x
Verse         2x
Chorus/
   Falling     6x
Intro            1x
Solo thing  8x

-------------------------------------------------------------------------------

#----------------------------------PLEASE NOTE---------------------------------#
#This file is the author's own work and represents their interpretation of the #
#song. You may only use this file for private study, scholarship, or research. #
#------------------------------------------------------------------------------#


Song: Have You Ever
Artist: The Offspring
Album: Americana
Tabbed By: Ba$$ Lizard (CRoyale007@aol.com)
*Member Of The Bass Tab Archive Tabbing Army*
Previous Author: katie dirksmeier (email: 102660.2234@compuserve.com)


The original tab was correct*, but it was impossible to read at least
on my computer, so this may be better.

*except for the end of the verse

*INTRO A*

G:---------------
D:---------------
A:-7-------------
E:----0-0-0-0-0-0 


*INTRO B* (this is during the "Falling, I'm falling" part)

G:--------------------------------
D:--------------------------------
A:-7-7-7-7-7-7-7-7---------5-5-5-5
E:-----------------3-3-3-3--------


*VERSE*

G:------------------------------------------------------------------
D:------------------------------------------------------------------
A:---------------------------------5-5-5-5-5-5-5-5-5----------------
E:-0-0-0-0-0-0-0-0-3-3-3-3-3-3-3-3-------------------5-5-5-8-7-7-7-7

*CHORUS*

G:--------------------------------
D:--------------------------------
A:-7-7-7-7-3-3-3-3---------5-5-5-5
E:-----------------3-3-3-3--------

*BRIDGE*

G:---------------------------------------------------------
D:---------------------------------------------------------
A:-7--7-7-7-7---------5-5-5-5-7-7-7-7-3-3-3-3-5-5----------
E:------------3-3-3-3-----------------------------0-2-3-2-0

*OUTRO*

G:----------------------------------
D:----------------------------------
A:-3-3-3-3-5-5-----------3-3-3-3-(5)
E:-------------0-2-3-2-0------------

()= Let Ring

Song Structure

INTRO A    6X  (on the last time repeat the last note many times)
INTRO B    2X
VERSE      2X
CHORUS     4X
VERSE      2X
CHORUS     6X  (Starting with the 5th time, gradually play softer)
         -BREAK WHILE THE DRUMS PLAY-
INTRO      6X   (Gradually slow down tempo)
BRIDGE     8X
OUTRO      1X   





_______________________________________________________
Contribuição: Caio Mac Cord(caiomaccord@hotmail.com)
Composição de Atom Willard / Christine Higgins / Dexter Holland / Doug Thompson / Greg K. / James Lija / Jim Benton / Josh Freese / Marcus Parrish / Noodles / Pete Parada / Ron Welty / Ronnie King / Scott Shiflett / Tony Kanal / Warren Fitzgerald
5.107 exibições

0 comentários

Ver todos os comentários

Conseguiu tocar?

0 Tocaram 0 Ainda não

Grave um vídeo tocando Have You Ever e nos envie!

00:00 / 00:00
Outros vídeos desta música
Repetir Qualidade Automático
Outros vídeos desta música
00:00 / 00:00
Automático

Cifra Club Pro

Aproveite o Cifra Club com benefícios exclusivos e sem anúncios
Cifra Club Pro
Aproveite o Cifra Club com benefícios exclusivos e sem anúncios
OK