Cifra Club

A Ele

Oficina G3

Cifra: Principal
exibições 323.860
Tom: G#
[Intro]  F  C#  D#  F

E|---------------------------------------|---------------------------------------------------|
B|---------------------------------------|---------------------------------------------------|
G|--------8/10~~8~~--------8/10~8~8b²----|-------8/10~~8~~-----------------------------------|
D|-7-8-10----------8-8/10~~-----------10~|-7-8-10--------8-8/10~~10-8-------8/10-8-10-10-8-7~|
A|---------------------------------------|----------------------------10-11------------------|
E|---------------------------------------|---------------------------------------------------|

 Fm               C#9         G#9
Se eu pudesse explicar ao mundo
    Bb9    C#9         F
O que é andar contigo, Oh Deus!
 C#9             Bb9     A   C#9    Cm
Minhas palavras não poderiam expressar

       F#
O Teu poder
Bbm       D#9    Cm
O Teu imutável amor
               F#           Bbm         D#9  F
Falar de Quem foi, que é e sempre será Deus!

           C#9   D#9   F
Cantem os povos ao Senhor
  C#9    D#9   F
A Ele o louvor
        C#9     D#9     F
A majestade ao Rei dos reis
        C#9   D#9        F
O verdadeiro Deus, o Eu Sou!

C#9  D#9  F

E|----------------------------------------------|
B|----------------------------------------------|
G|----------------------------------------------|
D|-10-8-------8/10-8-10-10-8-7~-----------------|
A|------11-11-----------------------------------|
E|----------------------------------------------|

 Fm       C#9      G#9
Como poderia me calar
 Bb9         C#9      F
Depois de O conhecer meu Deus
   C#9           Bb9         A  C#9  Cm
Será que alguém poderá entende_______er

          F#
O Teu querer
   Bbm      D#9      Cm
A Tua graça e Teu favor
            F#           Bbm         D#9   F
Aquele que foi, que é e sempre será Deus!

           C#9  D#9    F
Cantem os povos ao Senhor
  C#9    D#9   F
A Ele o louvor
        C#9     D#9     F
A majestade ao Rei dos reis
      C#9     D#9        F
O verdadeiro Deus, o Eu Sou!

[Solo]  Bbm  C#9  Fm  D#9  Bbm  C#9  Fm  F#

E|------------------------------------------------|---------------------------------------|
B|------------------------------------------------|---------------------------------------|
G|-3/6-6-8-8/10-10-12-12/13-12-10-8-10/12-10-8-6-5|-5/6-6-8-8/10~-10-12b-12-12b-13b-13-13b|
D|------------------------------------------------|---------------------------------------|
A|------------------------------------------------|---------------------------------------|
E|------------------------------------------------|---------------------------------------|

E|--------------------------------------------------------------------------|
B|------------------------------------------13-15-16--------13-15-16b-16-16b|
G|------------------12-13-15--------12-13-15--------12-13-15----------------|
D|----------12-13-15--------12-13-15----------------------------------------|
A|----13-15-----------------------------------------------------------------|
E|-15-----------------------------------------------------------------------|

Fm        Cm         D#9         Bb9    F
 O Teu entendimento não pode se medir
      Cm            D#9             Bb9
Desde o princípio anuncia o que ha de vir
        Cm           D#9        Bb9       F
Vira o dia em que a verdade se revelara
        Cm         D#9          C#9
E Tua gloria este mundo contemplará

Fm  G#  Cm  Bb9

           C#9  D#9    F
Cantem os povos ao Senhor
  C#9  D#9   F
A Ele  o louvor
        C#9     D#9     F
A majestade ao Rei dos reis
        C#9   D#9        F
O verdadeiro Deus, o Eu Sou!

0 comentários

    mostrar mais comentários

    Conseguiu tocar?

    71tocaram2ainda não

    Grave um vídeo tocando A Ele e mande pra gente!

    00:00 / 00:00
    outros vídeos desta música
    repetirqualidadeautomática
    Outro vídeos desta música
      00:00 / 00:00
      automática
      OK