Cifra Club

Aprenda

A Ele

Oficina G3

Cifra: Principal (violão e guitarra)
tom: A
[Intro] F  C#  Eb  F

E|----------------------------------------------------|
B|----------------------------------------------------|
G|--------8/10~~8~~--------8/10~8~8b------------------|
D|-7-8-10----------8-8/10~~-----------10~-------------|
A|----------------------------------------------------|
E|----------------------------------------------------|

E|----------------------------------------------------|
B|----------------------------------------------------|
G|-------8/10~~8~~------------------------------------|
D|-7-8-10--------8-8/10~~10-8-------8/10-8-10-10-8-7~-|
A|----------------------------10-11-------------------|
E|----------------------------------------------------|

Fm              C#9          G#9
  Se eu pudesse explicar ao mundo
      Bb9  C#9    F
O que é andar contigo, oh Deus!
 C#9             Bb9     A   C#9    Cm
Minhas palavras não poderiam expressar

         F#
O Teu poder
Bbm       Eb9    Cm
O Teu imutável amor
               F#           Bbm         Eb9  F
Falar de quem foi, que é e sempre será Deus!

           C#9   Eb9   F
Cantem os povos ao Senhor
  C#9    Eb9   F
A Ele o louvor
        C#9     Eb9     F
A majestade ao Rei dos reis
        C#9   Eb9        F
O verdadeiro Deus, o eu sou!

( C#9  Eb9  F )

E|----------------------------------------------|
B|----------------------------------------------|
G|----------------------------------------------|
D|-10-8-------8/10-8-10-10-8-7~-----------------|
A|------11-11-----------------------------------|
E|----------------------------------------------|

 Fm       C#9      G#9
Como poderia me calar
   Bb9       C#9  F
Depois de o conhecer meu Deus
   C#9           Bb9         A  C#9  Cm
Será que alguém poderá entende_______er

          F#
O Teu querer
   Bbm      Eb9      Cm
A Tua graça e Teu favor
            F#           Bbm         Eb9   F
Aquele que foi, que é e sempre será Deus!

           C#9  Eb9    F
Cantem os povos ao Senhor
  C#9    Eb9   F
A Ele o louvor
        C#9     Eb9     F
A majestade ao rei dos reis
      C#9     Eb9        F
O verdadeiro Deus, o eu sou!

[Solo] Bbm  C#9  Fm  Eb9 
       Bbm  C#9  Fm  F#

E|------------------------------------------------|---------------------------------------|
B|------------------------------------------------|---------------------------------------|
G|-3/6-6-8-8/10-10-12-12/13-12-10-8-10/12-10-8-6-5|-5/6-6-8-8/10~-10-12b-12-12b-13b-13-13b|
D|------------------------------------------------|---------------------------------------|
A|------------------------------------------------|---------------------------------------|
E|------------------------------------------------|---------------------------------------|

E|--------------------------------------------------------------------------|
B|------------------------------------------13-15-16--------13-15-16b-16-16b|
G|------------------12-13-15--------12-13-15--------12-13-15----------------|
D|----------12-13-15--------12-13-15----------------------------------------|
A|----13-15-----------------------------------------------------------------|
E|-15-----------------------------------------------------------------------|

Fm        Cm         Eb9           Bb9  
 O Teu entendimento não pode se medir
Fm          Cm           Eb9             Bb9   
Desde o princípio anuncia o que há de vir
        Cm           Eb9        Bb9     Fm
Vira o dia em que a verdade se revelará
        Cm         Eb9            C#9
E Tua gloria este mundo contemplará

( Fm  G#  Cm  Bb9 )

           C#9  Eb9    F
Cantem os povos ao Senhor
  C#9  Eb9   F
A Ele  o louvor
        C#9     Eb9     F
A majestade ao rei dos reis
        C#9   Eb9        F
O verdadeiro Deus, o eu sou!

[Final] C#9  Eb9  F
        C#9  Eb9  F
Composição de Alexandre Aposan / Celso Machado / Duca Tambasco / Jean Carllos / Juninho Afram / Mauro Henrique
350.840 exibições
    • ½ Tom
    • A
    • Bb
    • B
    • C
    • Db
    • D
    • Eb
    • E
    • F
    • F#
    • G
    • Ab
  • Adicionar à lista

    0 comentários

    Ver todos os comentários
    00:00 / 00:00
    Outros vídeos desta música
    Repetir Qualidade Automático
    Outros vídeos desta música
    00:00 / 00:00
    Automático

    Cifra Club Pro

    Aproveite o Cifra Club com benefícios exclusivos e sem anúncios
    Cifra Club Pro
    Aproveite o Cifra Club com benefícios exclusivos e sem anúncios
    OK