Cifra Club

Aprenda

Confiar

Oficina G3

Cifra: Principal (violão e guitarra)
Tom: C
Afinação: D A G D A D

[Intro] E5  G5  D
        E5  G5  D

D|----------------------------------0--0---0---------|
A|-----------------------------7/9--9--10--9---------|
G|------------0----------------0----0--0---0---------|
D|----0-2-2h4---0----0---------5/7--7--7---7---------|
A|-0h2-------------5----5h7r9--7/9--9--9---9---------|
D|-0h2-------------5---------------------------------|

D|----------------------------------0--0---0---------|
A|-----------0-----------------7/9--9--10--9---------|
G|-------------0---------------0----0--0---0---------|
D|----0-2-2h4-------0----------5/7--7--7---7---------|
A|-0h2-------------5----5h7r9--7/9--9--9---9---------|
D|-0h2-------------5---------------------------------|

    E5      G5  Bb5(9)                  F5(9)      E5
Sentado cansado     fecho os olhos pra poder ver além
           G5         D
Do que eu posso entender

 E5          G5  Bb5(9)                  F5(9)
Sei que a razão        não responde aos meus anseios
E5           G5        D
   O que eu posso esperar?

G9          Bb5(9)       A          F5(9)
  Enquanto caminhando aqui não é o meu lugar
G9           Bb5(9)      A            G9
  Do tempo que me resta levo a fé no caminhar

 Bb5(9)  G   D
Vou     confiar
Bb5(9)  G     D
E me    entregar

[Solo] E5  G  D
       E5  G  D

E|------------------------3-----------7----------------------------|-----------------------3--3------------7------------|
B|------------------------3---8--8/10------------------------------|---------------5--5h7-----3---8--8h10---------------|
G|---------0h2------0-----0-------------9/11-11-11-12-14-9-9/11-11-|----------0h2-------------0-----------------9/11-11-|
D|--0h3r4-------2/4---4p2-0----------------------------------------|---0h3r4------------------0-------------------------|
A|------------------------2-------------7/9--9--9--10-12-7-7/9--9--|--------------------------2-----------------7/9--9--|
D|------------------------3----------------------------------------|--------------------------3-------------------------|

E|---------------------------|
B|---------------------------|
G|--11-12-14-9--9/11--11-----|
D|---------------------------|
A|--9--10-12-7--7/9---9------|
D|---------------------------|

 E5        G5  Bb5(9)            F5(9)
Vou desfrutar       matar minha sede
      E5   G5           D
Desfazer o nó que me sufoca
 E5          G5   Bb5(9)                  F5(9)       E5       G5
Sei o que esperar       um lugar onde o fruto não precisa esperar
               D
A próxima estação

G9          Bb5(9)       A          F5(9)
  Enquanto caminhando aqui não é o meu lugar
G9           Bb5(9)      A            G9
  Do tempo que me resta levo a fé no caminhar

 Bb5(9)  G   D
Vou     confiar
Bb5(9)  G     D
E me    entregar

Bb5(9)      G5                  D5
A cada dia basta o seu próprio mal
  Bb5(9)   G5    D
Quero  só descansar

( D5 )

E|----------------------------------------------------|
A|----------------------------------------------------|
G|--------------------------------------0-------------|
D|------------------0-5-7-5---7-----------0-----------|
A|-3h5---5-5p3p0-0h3--------8---8-8/10----------------|
D|-----0----------------------------------------------|

Dm          F5           G5
  Se minha mente me atormenta com a dor
Dm        F5            G5
  Lembro das palavras que deixou
Dm          F5       G5
  O brilho da tua luz  sinto teu calor
Dm          F5            G5
  O Teu conforto me alcançou

[Solo] D5  F5  G5

D|-----------------------1-1-1-1---3-3-3-3---------|
B|-----------------------1-1-1-1---3-3-3-3---------|
G|-----------------------2-2-2-2---4-4-4-4---------|
D|-------------------0---3-3-3-3---5-5-5-5---------|
A|-3h5---5-5p3p0-0h3-----3-3-3-3---5-5-5-5---------|
D|-----0--0--------------1-1-1-1---3-3-3-3---------|

                                                               P.H
E|--------------------------------------------------------------------------------------------------------13h15r17--t18--|
B|--13--------13------11p10------------13-------13--11p10----------------------------------------13h15r17----------------|
G|------10-10----10-10------12-10-9-10----10-10-----------12-10-12~~-------------------12h14r15--------------------------|
D|----------------------------------------------------------------------------12h14r15-----------------------------------|
A|------------------------------------------------------------------12h13r15---------------------------------------------|
D|-----------------------------------------------------------------------------------------------------------------------|

E|--17p15--13p12--t17--15p13p12-/10--t15--13-12-10-----------------------------------------------------------------------|
B|--------------------------------------------------13p10h11--13--t15--13p11p10------------------------------------------|
G|------------------------------------------------------------------------------12-t14--12p10p9-/7--t12--10-9--7---------|
D|---------------------------------------------------------------------------------------------------------------10-7-8--|
A|-----------------------------------------------------------------------------------------------------------------------|
D|-----------------------------------------------------------------------------------------------------------------------|

E|-----------------------------------------------------|
B|-----------------------------------------------------|
G|-----------------------------------------------------|
D|--10--t12-10--8-7------------------------------------|
A|-------------------10p7h8h10--t12---10p8p7--5~~------|
D|-----------------------------------------------------|

E|------------------------------------------------------------------------------12b13--/13b15--/15b17-/20b22-------------|
B|-13-------13------11p10------------13-------13-11p10------------/13b15-/15b17-------------------------------20--18-----|
G|-----10-10---10-10------12-10-9-10---10-10----------12-10-12~------------------------------------------------------19~-|
D|-----------------------------------------------------------------------------------------------------------------------|
A|-----------------------------------------------------------------------------------------------------------------------|
D|-----------------------------------------------------------------------------------------------------------------------|

E|-------------------------------------------------------------------17-22-17--------------------------------------------|
B|--13-------13-------11p10--------------/20--------20--------20b22-----------20-20b22--22b23~-22~-----------------------|
G|-----10-10----10-10-------12-10-12-10------17--17----17-17-------------------------------------------------------------|
D|-----------------------------------------------------------------------------------------------------------------------|
A|-----------------------------------------------------------------------------------------------------------------------|
D|-----------------------------------------------------------------------------------------------------------------------|


Bb5(9)  G   D
Vou    confiar
Bb5(9)   G     D
E     me entregar

D|-----------------------------------------------------|
A|-----------------------------------------------------|
G|12-11-9-7-9-9-11/12-11-------------------------------|
D|-----------------------------------------------------|
A|10-9--7-5-7-7-9-/10-9--------------------------------|
D|-----------------------------------------------------|

Bb5(9)      G5                  D5
A cada dia basta o seu próprio mal
  Bb5(9)   G5    D
Quero  só descansar
Composição de Duca Tambasco / Jean Carllos / Juninho Afram / Mauro Henrique 222.107 exibições
  • Simplificar cifra
    • ½ Tom
    • A
    • Bb
    • B
    • C
    • Db
    • D
    • Eb
    • E
    • F
    • F#
    • G
    • Ab
  • Adicionar à lista

    0 comentários

    Mostrar mais comentários
    00:00 / 00:00
    outros vídeos desta música
    repetir qualidade Automático
    Outros vídeos desta música
    00:00 / 00:00
    Automático

    Cifra Club Pro

    Aproveite o Cifra Club com benefícios exclusivos e sem anúncios
    7 dias grátis
    Cifra Club Pro
    Aproveite o Cifra Club com benefícios exclusivos e sem anúncios
    7 dias grátis
    OK