Cifra Club

Confiar

Oficina G3

Cifra: Principal
exibições 191.894
Tom: E
[Intro]  E5  G5  D

E|--------------------------------------------------------|
A|------------------------------------------------9/10/9--|
G|-----------------0--------------------------------------|
D|-------0---2-2/4---0-----0---------7----5/7-777--7-7-7--|
A|-----0-----------------------7-7/9---9--7/9-999--9-9-9--|
D|-0h2-----2-----------5-5---5----------------------------|

E|--------------------------------------------------------|
A|-----------------0------------------------------9/10/9--|
G|-------------------0------------------------------------|
D|-------0---2-2/4---------0---------7----5/7-777--7-7-7--|
A|-----0-----------------------7-7/9---9--7/9-999--9-9-9--|
D|-0h2-----2-----------5-5---5----------------------------|

    E5       G5     Bb5(9)             F5(9)      E5
Sentado  cansado   Fecho os olhos pra poder ver além
           G5      A/F#
Do que eu posso entender

 E5        G5     Bb5(9)           F5(9)
Sei que a razão  não responde aos meus anseios
 E5         G5        A/F#
  O que eu posso esperar?

G9        Bb5(9)       A           F5(9)
Enquanto caminhando aqui  não é o meu lugar
G9       Bb5(9)       A            G9
  Do tempo que me resta levo a Fé no Caminhar
 
 Bb5(9)  G   D
Vou     Confiar
Bb5(9)    G       D
       E me entregar

E|---------------5-5--------9p0-------------------------|
A|---------------5-5---10/12----------------------------|
G|----0-2-----0--0-0---------9/11-11-11-12-14-9-9/11-11-|
D|--------2/4--0-0-0------------------------------------|
A|---------------4-4---------7/9--9--9--10-12-7-7/9--9--|
D|-0h2-----------5-5------------------------------------|

 E5        G5   Bb5(9)      F5(9)
Vou desfrutar  matar minha sede
    E5      G5          A/F#
Desfazer o nó que me sufoca
 E5          G5    Bb5(9)            F5(9)       E5  G5
Sei o que esperar  um lugar onde o Fruto não precisa esperar
              A/F#
A próxima estação

G9        Bb5(9)       A           F5(9)
Enquanto caminhando aqui  não é o meu lugar
G9           Bb5(9)       A              G9
  Do tempo que me resta  levo a Fé no caminhar

 Bb5(9)  G   D
Vou     Confiar
Bb5(9)    G       D
      E  me entregar

Bb5(9)      G5                  D5
A cada dia basta o seu próprio mal
  Bb5(9)  G5       D
Quero    só descansar

E|----------------------------------------------------|
A|----------------------------------------------------|
G|--------------------------------------0-------------|  
D|------------------0-5-7-5---7-----------0-----------|
A|-3h5---5-5p3p0-0h3--------8---8-8/10----------------|
D|-----0----------------------------------------------|

Se minha mente me atormenta com a dor
lembro das palavras que deixou
o brilho da tua luz  sinto teu calor
o Teu conforto me alcançou.

[Solo/Base] F5  G5

D|-----------------------1-1-1-1---3-3-3-3---------|
A|-----------------------1-1-1-1---3-3-3-3---------|
G|-----------------------2-2-2-2---4-4-4-4---------|  
D|-------------------0---3-3-3-3---5-5-5-5---------|
A|-3h5---5-5p3p0-0h3-----3-3-3-3---5-5-5-5---------|
D|-----0--0--------------1-1-1-1---3-3-3-3---------|

[Refrão]
   
D|------------------------------------------------------|
A|------------------------------------------------------|
G|------------------------------------------------------|
D|---------10---8---------------------------------------|
A|-----7-8----8-----------------------------------------|
D|-5-6--------------------------------------------------|

 Bb5(9)  G   D
Vou     Confiar
Bb5(9)  G       D
 E     me entregar

D|-----------------------------------------------------|
A|-----------------------------------------------------|
G|12-11-9-7-9-9-11/12-11-------------------------------|
D|-----------------------------------------------------|
A|10-9--7-5-7-7-9-/10-9--------------------------------|
D|-----------------------------------------------------|

Bb5(9)      G5                  D5
A cada dia basta o seu próprio mal
  Bb5(9)  G5       D
Quero    só Descansar

0 comentários

    mostrar mais comentários

    Conseguiu tocar?

    48tocaram0ainda não

    Grave um vídeo tocando Confiar e mande pra gente!

    00:00 / 00:00
    outros vídeos desta música
    repetirqualidadeautomática
    Outro vídeos desta música
      00:00 / 00:00
      automática
      OK