Cifra Club

Aprenda

Ele Vive

Oficina G3

Cifra: Principal (violão e guitarra)
tom: C
(D C G)
D                   C          G
Eu acredito em Deus  e que Seu Filho Jesus Ele nos deu
D                            C      G
Pra morrer naquela cruz sem glória e luz
D                               C               G
Mas acredito que ao terceiro dia aquela tumba estava vazia

[Refrão]
Bb
Porque a cruz não O segurou
A
Porque a morte não O segurou
G
E nem o inferno O segurou
D             F              G
Ele vive com toda Sua Glória e o Seu poder  (2x)

(D C G)

D
eu não acredito em um Jesus distante
C                     G
eu não acredito em um Jesus inoperante
D                             C             G
eu conheço um Jesus amigo que sempre está comigo
D                            C                 G
eu acredito também na bíblia são palavras do Autor da vida.
E|-----------------------------------------------------------------|
B|---3----5-5--5-5-5-5--7-7-7-7-7-7----9-9-7-----------------------|
G|-----------------------------------------------------------------|
D|---5---7-7--7-7-77----9-9-9-9-9-9---1-1-1-1-1-3------------------|
A|-----------------------------------------------------------------|
E|-----------------------------------------------------------------|

E|-----------------------------------------------------------------|
B|----3---5-5-5-5-5-5-7--7-5-7-7-3-5-9-6---------------------------|
G|-----------------------------------------------------------------|
D|---5---7-7-7-7-7-7----9--9-7--9-9-5-7-1-1-1-3--------------------|
A|-----------------------------------------------------------------|
E|-----------------------------------------------------------------|

E|-----------------------------------------------------------------|
B|-----3--5-5-5-5-5-5-7--7-7-7-7-7--9-9-9--------------------------|
G|-----------------------------------------------------------------|
D|----5--7-7-7-7-7-7----9-9-9-9-9-9----1-1-1-1-1-------------------|
A|-----------------------------------------------------------------|
E|-----------------------------------------------------------------|

E|-------------------------------------------1--3--1---------------|
B|---3-2-2--3--2-2-0-------------------------3--5--3---------5-----|
G|-----------------------------------------------------------7-----|
D|---5-4-4-4-4-4-4-2-----------------------------------------------|
A|-----------------------------------------------------------2-----|
E|-----------------------------------------------------------------|
Composição de Juninho Afram
Colaboração e revisão:
  • Guilherme Araujo
  • marco Antonio
  • luanderson oliveira
154.274 exibições
    • ½ Tom
    • A
    • Bb
    • B
    • C
    • Db
    • D
    • Eb
    • E
    • F
    • F#
    • G
    • Ab
  • Adicionar à lista

    0 comentários

    Ver todos os comentários
    00:00 / 00:00
    Outros vídeos desta música
    Repetir Qualidade Automático
    Outros vídeos desta música
    00:00 / 00:00
    Automático

    Cifra Club Pro

    Aproveite o Cifra Club com benefícios exclusivos e sem anúncios
    Cifra Club Pro
    Aproveite o Cifra Club com benefícios exclusivos e sem anúncios
    OK