Enviar cifraEntrar

Meus Passos

Oficina G3

Cifra: Principal
exibições 92.183
Tom: C#

 (intro 2x) Cm D D# F# F G# G Cm D D# F# F F D#
C|----------------------------------
G|----------------------------------
Eb|----------------------------------
Bb|----------------------------------
A|--3---5---6---10---8---3---11---10
C|----------------------------------


E|----------------------------------
B|----------------------------------
G|----------------------------------
D|----------------------------------
A|--3-3-3-3-3-3-3-3-3---------------
E|----------------------------------


E|----------------------------------
B|----------------------------------
G|----------------------------------
D|----------------------------------
A|--3---5---3---6---3---9---8---6---
E|----------------------------------


E|----------------------------------
B|----------------------------------
G|----------------------------------
D|----------------------------------
A|--6--6-6-5-5-5--5-----------------
E|----------------------------------


E|----------------------------------
B|----------------------------------
G|----------------------------------
D|----------------------------------
A|--3---5---6---10---8---3---11---10
E|----------------------------------


E|----------------------------------
B|----------------------------------
G|----------------------------------
D|----------------------------------
A|--3--10-8-6-10-8-6-5-4------------
E|----------------------------------


E|----------------------------------
B|----------------------------------
G|----------------------------------
D|----------------------------------
A|--3---5---6---10---8---3---11---10
E|----------------------------------


E|----------------------------------
B|----------------------------------
G|----------------------------------
D|----------------------------------
A|--6-6-6-5-5-5-5-------------------
E|----------------------------------


E|----------------------------------
B|----------------------------------
G|----------------------------------
D|----------------------------------
A|--33-333-333-3-3-10-33333-33-33-33
E|----------------------------------


E|----------------------------------
B|----------------------------------
G|----------------------------------
D|----------------------------------
A|--33-333-333-3-3-10-33333-33-33-3-
E|----------------------------------


E|----------------------------------
B|----------------------------------
G|----------------------------------
D|----------------------------------
A|--333333333333333333333-33-33-3---
E|----------------------------------


E|----------------------------------
B|----------------------------------
G|----------------------------------
D|----------------------------------
A|--333333333333333333333-33-33-3---
E|----------------------------------


Cm
Porque os meus olhos só querem ver
O que não devo olhar, eu não quero ver?
Porque que os meus pés só querem ir
Onde não devo andar, eu não quero ir?

G#   Fm                             Cm
Não quero, mas isto e o que somos nos

E|----------------------------------
B|----------------------------------
G|----------------------------------
D|---------------------5------------
A|-3-3-3-3-3-3-3-3-3-3--------------
E|----------------------------------


Cm
Porque num momento eu amo e depois
Simplesmente não, eu não quero mais?
Porque que com uma das minhas mãos eu dou
E com a outra mão eu quero tirar?

G#    F                          Cm
Não quero, mas isto e o que somos nos

C#               G#
O bem que eu quero
Fm           Cm
Esse eu não faço
C#                G#
O mal que não quero
Fm                   Cm
Persegue os meus passos

E|----------------------------------
B|----------------------------------
G|---------------------------------- (3x)
D|----------------------------------
A|--3-5-6-10-9-10-9-----------------
E|----------------------------------


E|----------------------------------
B|----------------------------------
G|----------------------------------
D|---------------------5------------
A|-3-3-3-3-3-3-3-3-3-3--------------
E|----------------------------------


Cm
Porque e difícil manter o alvo e
Fácil se perder, querer desistir?
Porque que ao ver o mundo se afundar
Eu não estendo a mão não quero ajudar?

G#  F            Cm
Não quero, mas isto e o que somos nos

C#               G#
O bem que eu quero
Fm           Cm
Esse eu não faço
C#                G#
O mal que não quero
Fm                  Cm
Persegue os meus passos
  • 1
  • 2
  • 3
  • 4
  • 5
  • 6
  • 7
  • 8
  • 9
  • 10
  • 11
  • 12
    Acordes para:

      0 comentários

        mostrar mais comentários

        Conseguiu tocar?

        11tocaram1ainda não

        Grave um vídeo tocando Meus Passos e mande pra gente!

        00:00 / 00:00
        outros vídeos desta música
        repetirqualidadeautomática
        • automática
        Outro vídeos desta música
          00:00 / 00:00
          automática
          • automática
          Acordes para:violão e guitarra
          dificuldadeexibiçõescontribuições
          fecharplay/pause subir/descer velocidade
            acordes
            fechar
            OK
            Feedback