Notificações Amigos pendentes

      Oficina G3

      O Tempo

      1.117.395 exibições
      Tom: F
      (intro) Gm7  C9  F  Bb9
      
       Gm7                 C9
      O vento toca o meu rosto
            F                         Bb9
      me lembrando que o tempo vai com ele
        Gm7                         C9
      levando em suas asas os meus dias,
           F          Bb9
      desta vida passageira
       Gm7
      minhas certezas, meus conceitos,
                C9
      minhas virtudes, meus defeitos
      F          Bb9
      nada pode detê-lo...
         Gm7      Am
      ...o tempo se vai
      Bb9
      mas algo sempre guardarei...
        Gm7    Am         Bb9           C9
      ..o Teu amor, que um dia eu encontrei
      
      F        Gm7       Am         Bb9
      os meus sonhos, o vento nao pode levar
      Dm     C9      Am            Bb
      a esperança, encontrei no Teu olhar
      F       Gm7       Am            Bb9
      os meus sonhos, a areia não vai enterrar
      Dm       C9       Am             Bb9
      porque a vida recebi ao Te encontrar...
      
      Gm7                       C9
      ...nos Teus braços não importa o tempo
           F              Bb9
      só existe o momento de sonhar
           Gm7            C9
      e o medo que está sempre à porta
               F
      quando estou com Você
              Bb9
      Ele não pode entrar...
        Gm7      Am
      ...o tempo se vai
      Bb9
      mas algo sempre guardarei...
        Gm7    Am         Bb9           C9
      ..o Teu amor, que um dia eu encontrei
      
      F        Gm7       Am         Bb9
      os meus sonhos, o vento nao pode levar
      Dm     C9      Am            Bb
      a esperança, encontrei no Teu olhar
      F       Gm7       Am            Bb9
      os meus sonhos, a areia não vai enterrar
      Dm       C9       Am             Bb9   C
      porque a vida recebi ao Te encontrar...
      
      (solo base 2x) ( Gm7  C  F  Bb9 )
      
      (solo)
      
      E|------------------5-6-6/8------6/8---6--5------------|
      B|---------5--6--8---------------------------6/8-------|
      G|---5--7---------------------5------------------------|
      D|-----------------------------------------------------|
      A|-----------------------------------------------------|
      E|-----------------------------------------------------|
      
      
      E|------------------5-5-----------5--------------------|
      B|---------5-6-6/8-------8--6--8-----6-----------------|
      G|---5--7----------------------------------------------|
      D|-----------------------------------------------------|
      A|-----------------------------------------------------|
      E|-----------------------------------------------------|
      
      
      E|-------6/8---5-6-8-6-5-------------------------------|
      B|-----------------------8-6-5-6-8-6-5-----------------|
      G|----5---------------------------------7--5-----------|
      D|-----------------------------------------------------|
      A|-----------------------------------------------------|
      E|-----------------------------------------------------|
      
      
      E|--6--8--8/10---8--5----------------------------------|
      B|---------------------6--3----------------------------|
      G|-----------------------------------------------------|
      D|-----------------------------------------------------|
      A|-----------------------------------------------------|
      E|-----------------------------------------------------|
      
      
      (base do coral 2x) ( Dm C9 F Bb9 F C9 )
      
      F         Gm7        Am           Bb9
       os meus sonhos, o vento não pode levar
      Dm      C9           Am          Bb9
       a esperança, encontrei no Teu olhar
      F         Gm7        Am          Bb9
       os meus sonhos, a areia não vai enterrar
      Dm        C9       Am           Bb9
       porque a vida recebi ao Te encontrar...
      
      ( Gm7 C9 F Bb9 Gm7 C9 F )
        Composição: Juninho AframColaboração e revisão:
        • Pesao
        • COELHO
        • batera349
        • thiaguinho
        • +17

        Comentários 65

        140 .
        • marcelo marcelo: Em 10/07/2016 09:45

          Estou aprendendo, falta treinar mais um pouco. As Cifras encaixaram bem, muito obrigado pelas dicas!

        • felipe felipe: Em 25/02/2016 10:39

          alguém pode me dizer qual o ritmo desse msc?

        • Jefferson Jefferson: Em 26/01/2016 13:05

          Uma das primeiras músicas que toquei do oficina. Há quase dez anos atrás!!

        • deepbm deepbm: Em 12/07/2014 14:50

          Nao tem uma outra nota qe eu possa Substituir pela Gm7?

          • Leonardo.MateusR00 Leonardo.MateusR00: Em 24/08/2014 13:04

            simplifica ela faça so o Gm sem a setima

          • Louise Louise: Em 08/09/2014 20:33

            Tem sim, põe tudo com pestana que a música fica mais fácil. A Gm7 fica melhor com pestana na terceira casa e dedo 3 na corda lá da 5 casa :)

        • abrahao.silva.336 abrahao.silva.336: Em 11/06/2014 18:34

          ja vi tantos videos do cifra culb q ja peguei o solinho do começo

        • Nathalia Nathalia: Em 22/04/2014 21:42

          a musica original é no tom de G e o solo no tom de G# sendo que no final do solo em vez de ser
          E|--8--10--10/12---10--7---------------------

        • fernandorali fernandorali: Em 21/01/2014 14:23

          se vcs colocarem o capo na terceira casa e mudar o tom para G, além de simplificar os acordes a sonoridade fica muito bonita.

          • Denilson Denilson: Em 26/02/2014 17:15

            verdd.. ficou bem bonita assim...vlw pela dica..

        140 cancelar

        conseguiu tocar?

        • •••
        0:00 / 0:00
        Esta versão de cifra não é usada na videoaula. Exiba a cifra correta.
        1 versão de partiturasformatodownloadscontribuição
        play/pausefechar subir/descer velocidade
        6ª corda E5ª corda A4ª corda D3ª corda G2ª corda B1ª corda E
          acordes
          publicidade
          fechar
          ok