Cifra Club

O Tempo

Oficina G3

Cifra: Principal (violão e guitarra)
Selo Cifra Club: esta cifra foi revisada para atender aos critérios oficiais da nossa Equipe de Qualidade.
tom: Eb (forma dos acordes no tom de F) Afinação: D G C F A D
[Intro] Am  D2  G  C9

[Primeira Parte]

Am                     D2
   O vento toca o meu rosto
        G                     C9
Me lembrando que o tempo vai com ele
Am                               D2
   Levando em suas asas os meus dias
       G         C9
Desta vida passageira
Am           
   Minhas certezas, meus conceitos
           D2
Minhas virtudes, meus defeitos
 G           C9
Nada pode detê-lo

[Pré-Refrão]

Am       G/B
   O tempo se vai
    C9
Mas algo sempre guardarei
Am    G/B            
   O Teu amor 
        C9           D
Que um dia eu encontrei

[Refrão]

G         Am     
 Os meus sonhos 
   G/B          C9
O vento não pode  levar
Em         D         
    A esperança
       G/B          C9
Encontrei no Teu olhar
G          Am             
  Os meus sonhos 
    G/B         C9
A areia não vai enterrar
Em           D        G/B
   Porque a vida recebi
              C9
 Ao Te encontrar

[Segunda Parte]

Am                 
   Nos Teus braços 
       D2
Não importa o tempo
     G               C9
Só existe o momento de sonhar
Am                    D2
   E o medo que está sempre à porta
          G
Quando estou com Você
         C9
Ele não pode entrar

[Pré-Refrão]

Am       G/B
   O tempo se vai
    C9
Mas algo sempre guardarei
Am    G/B            
   O Teu amor 
        C9           D
Que um dia eu encontrei
       
[Refrão]

G         Am     
 Os meus sonhos 
   G/B          C9
O vento não pode  levar
Em         D         
    A esperança
       G/B          C9
Encontrei no Teu olhar
G          Am             
  Os meus sonhos 
    G/B         C9
A areia não vai enterrar
Em           D        G/B
   Porque a vida recebi
              C9
 Ao Te encontrar

[Solo] Am  D2  G  C9
       Am  D2  G  C9

 Parte 1 de 4

E|------------------7-8-8/10-----8/10--8p7-------------|
B|---------7--8--10------------------------8/10~-------|
G|---7--9---------------------7------------------------|
D|-----------------------------------------------------|
A|-----------------------------------------------------|
E|-----------------------------------------------------|

   Parte 2 de 4

E|-----------------------------------------------------|
B|--------7--8-8/10-10/12-12~--12\10p8-10-10/12-8------|
G|---7--9----------------------------------------------|
D|-----------------------------------------------------|
A|-----------------------------------------------------|
E|-----------------------------------------------------|

   Parte 3 de 4

E|-------8/10--------7-8-10--8-7-----------------------|
B|------------7-8-10-------------10-8-7-8-10-7h8p7-----|
G|----7--------------------------------------------9-7-|
D|-----------------------------------------------------|
A|-----------------------------------------------------|
E|-----------------------------------------------------|

   Parte 4 de 4
                              H.N  .
E|--8--10--10/12---10--7--7----------------------------|
B|------------------------8----------------------------|
G|----------------------------12-----------------------|
D|-----------------------------------------------------|
A|-----------------------------------------------------|
E|-----------------------------------------------------|

( Em  D2  G  C9  G/B  D )
( Em  D2  G  C9  G/B  D )

[Refrão]

G         Am     
 Os meus sonhos 
   G/B          C9
O vento não pode  levar
Em         D         
    A esperança
       G/B          C9
Encontrei no Teu olhar
G          Am             
  Os meus sonhos 
    G/B         C9
A areia não vai enterrar
Em           D        G/B
   Porque a vida recebi
              C9
 Ao Te encontrar

G         Am     
 Os meus sonhos 
   G/B          C9
O vento não pode  levar
Em         D         
    A esperança
       G/B          C9
Encontrei no Teu olhar
G          Am             
  Os meus sonhos 
    G/B         C9
A areia não vai enterrar
Em           D        G/B
   Porque a vida recebi
              C9
 Ao Te encontrar

[Intro] Am  D2  G  C9  
        Am  D2  G
Outros vídeos desta música
1.585.135 exibições
  • Simplificar cifra
    • ½ Tom
    • A
    • Bb
    • B
    • C
    • Db
    • D
    • Eb
    • E
    • F
    • F#
    • G
    • Ab
  • Adicionar à lista

Afinação da cifra

Afinador online

    0 comentários

    Ver todos os comentários

    Entre para o Cifra Club PRO

    Tenha acesso a benefícios exclusivos no App e no Site

    • Chega de anúncios

    • Mais recursos no app do Afinador

    • Atendimento Prioritário

    • Aumente seu limite de lista

    • Ajude a produzir mais conteúdo

    Cifra Club Pro

    Aproveite o Cifra Club com benefícios exclusivos e sem anúncios
    Cifra Club Pro
    Aproveite o Cifra Club com benefícios exclusivos e sem anúncios
    OK