Quem

Oficina G3

Composição de: Juninho Afram
tom: G
Afinação em D:      D / G / C / F / A / D

Introdução:

D |-------------------------2------|
A |--------------------------2-----|
F |-----4-----4-----4-----4--------|
C |---4-----4-----4-----4----------| (4x)
G |-0-----2-----3-----2-----3-2-0--|
D |--------------------------------|

Riff: 02

D |---7-9--------------------------|
A |-------7/8/7--7-----4-----------|
F |-7--------------6-----6---------|
C |------------------0-----5-------|
G |--------------------------------|
D |--------------------------------|


Riff: 03

D |--7-9-----9-----7-9-----9-------|
A |------7-----7-------7-----------|
F |--------9-----9-------9---------|
C |--------------------------------|
G |--------------------------------|
D |--------------------------------|


Riff: 02
Tantas coisas prá pensar,

Riff: 03
Tantas coisas pra lembrar,

Riff: 02
Algumas coisas pra sorrir,

Riff: 03
Muitas outras pra chorar.


Refrão:

Em         D            Em

Quem vai ouvir, a minha voz?

Em           D              C9
Quem vai enxugar, as minhas lágrimas?

G  Em
Quem?



Riff:01 (2x)

Riff: 02
Tantas coisas prá vencer,

Riff: 03
tantas coisas prá esquecer

Riff: 02
Não há forças pra lutar,

Riff: 03
falta coragem pra encarar.



Refrão:

Em         D            Em

Quem vai ouvir, a minha voz?

Em           D              C9
Quem vai enxugar, as minhas lágrimas?

G  Em
Quem?

Solo:

D |-----3-----2-----0--3--2---------------------|--11/12--11-11--9-9--7-7--5-5---------------|
A |---------3-----3-----------3--3-3/5-3--5-3---|--------------------------------------------|
F |-------0-----0-------------------------------|--------------------------------------------|
C |---------------------------------------------|--------------------------------------------|
G |--3-----------------3--3------3-3/5-3--5-3---|--------------------------------------------|
D |---------------------------------------------|--------------------------------------------|

D |---7--5--4-5--7-7/9--7--5--|--3---3---2---0-------------|
A |---------------------------|----3-------3---------------|
F |---------------------------|----------------------------|
C |---------------------------|----------------------------|
G |---------------------------|----------------------------|
D |---------------------------|--3-------3-----------------|


Quem?

Refrão:

Em         D            Em
Quem vai ouvir, a minha voz?

Em           D              C9
Quem vai enxugar, as minhas lágrimas?

G  Em
Quem?

G  Em
Quem?
Página 1 / 1

Letras e título
Acordes e artista

resetar configurações
OK