Notificações Amigos pendentes

      Oficina G3

      Sempre Mais

      146.815 exibições
      Tom: G
      
      Intro: Em  A  Em  A  Em  C  B  A
      E|-10--------------------------------------------------------------|
      B|----10------------------------------------------------10---------|
      G|-------11p9--7--9--7--9/11v--7h9p7-----------------7-------7--9--|
      D|---------------------------------------------7h9-----------------|
      A|-----------------------------------------9-----------------------|
      E|-----------------------------------------------------------------|
      
      
      E|-------------------------------------------------------------|
      B|---------------------------------------------------------7--8|
      G|--7--9r--9--9--9p7---------------------------------7h9-------|
      D|------------------------9--7h9p7---------------7h9-----------|
      A|------------------------------------9--7--7h9----------------|
      E|-------------------------------------------------------------|
      
      
      E|---------------------------------------------------------------|
      B|-----------------------8/10--8--7---------------------10r--10v-|
      G|--9---------------7-----------------7--------9r--9v------------|
      D|-------------7h9-----------------------7a\---------------------|
      A|-------7h9-----------------------------------------------------|
      E|---------------------------------------------------------------|
      
      
      E|---------------------|
      B|-10--12--13--12--10--|
      G|---------------------|
      D|---------------------|
      A|---------------------|
      E|---------------------|
      
      
      D9   D9/F#         G
        Levanto os meus olhos
         D9/F#         G
        E busco encontrar
         D9/F#         G
        Procuro descanso
           D9/F#         G
        Em minha alma alcançar
           D9/F#         G
        Tudo parece um sonho
           D9/F#         G          Em
        Não quero mais acordar
        F#m          G            A
        Vivo o tempo todo a te buscar
              D  Em    F#m  G
        Sempre mais, muito mais (4X)
      Riff do baixo e violão:
      
      E|---------------|
      B|---------------|
      G|---------------|
      D|---------------|
      A|---2-3--2--0---|
      E|-3-------------|
      
      
      D9   D9/F#            G
        Em vc eu encontrei abrigo
         D9/F#         G
        Eu sinto amor de um amigo
      D9       D9/F#            G             Em
        Em teus braços eu descobri a paz
         F#m         G           A
        Vivo o tempo todo a te buscar
              D  Em     F#m G
        Sempre mais, muito mais  (4x)
      Riff da guitarra:
      
      E|---------|
      B|---------|
      G|---------|
      D|-5--5s7--|
      A|-5--5s7--|
      E|---------|
      
      
      Solo de Baixo:
      
      G|---------4------4h6-4------------------------------------------4---4-6-6/7|
      D|-------4----7-7-------7-4--------4---------3/4-4/5-9-7--------------------|
      A|---5-5--------------------7--5h7---7-5\2-0-------------7-5-7-5---5--------|
      E|--------------------------------------------------------------------------|
      
      
      G|-6-4-4h6-4\2-2-----------2---------2-2h4-2--------2-2/9-----|
      D|---------------4-2---2-4---4-2---4---------4-2--4-----------|
      A|-------------------5-----------5----------------------------|
      E|------------------------------------------------------------|
      
      
      G|----------------------------------------------------------------------------|
      D|-------4-------4p5h7-7-5-4-----------7h9-7\4-5/7-7h9-7\4-2---2h4-2--2-2-----|
      A|-4p5h7---4p5h7-------------7-5-5-5/7-----------------------4-------5--------|
      E|----------------------------------------------------------------------------|
      
      
      Em                    G
        Sua voz é como as muitas águas do mar
      A                                G       A
        Que me traz segurança pra continuar buscando
              D  Em     F#m G
        Sempre mais, muito mais  (4x)
      Solo de guitarra:
      
      E|-14h15-14h15-15/17-------17/19-19b-17-----------------------------------------------||
      B|-------------------15-15--------------15~-15h17-15---------15br---17br--------------||
      G|---------------------------------------------------14-14~------14-----14-14--14/16~-||
      D|---------------------------------------------------------------------------16-------||
      A|------------------------------------------------------------------------------------||
      E|------------------------------------------------------------------------------------||
      
      
      Riff do baixo e violão:
      
      G|-------------|
      D|-------------|
      A|-0-2-3--2--0-|
      E|-------------|
      
      
      Riff do teclado:
      
      E|-12-14-15~--15-14--10-12-10~||
      B|----------------------------||
      G|----------------------------||
      D|----------------------------||
      A|----------------------------||
      E|----------------------------||
      
      
        Composição: Pedro Geraldo e Juninho AframColaboração e revisão:
        • dilam.
        • Aguiar
        • Mau_Mau
        • MeioCentavo
        • +3

        Comentários 3

        140 .
        • ghean ghean: Em 10/06/2014 13:25

          legal vo manda uma video aula para o pessoal que toca contra-baixo mas so a parte do solo

        • Nathalia Nathalia: Em 17/04/2014 20:20

          video aula por favor

        • Samuel HP Samuel HP: Em 01/06/2011 17:14

          otima musica!

        140 cancelar

        conseguiu tocar?

        • •••

        covers

        Grave um vídeo tocando Sempre Mais e mande pra gente!

        Ex.: http://www.youtube.com/watch?v=0IvSvIwGdwk
        ver covers de outras músicas »
        0:00 / 0:00

        Capítulos

          3 versões de baixo exibições contribuição e correção
          2 versões de Guitar Proformatodownloadscontribuição
          play/pausefechar subir/descer velocidade
          6ª corda E5ª corda A4ª corda D3ª corda G2ª corda B1ª corda E
            acordes
            publicidade
            fechar
            ok