Cifra Club

Te Escolhi

Oficina G3

Cifra: Principal
exibições 348.942
Tom: C#
Bbm9         Bbm9/Ab
    Você já me procurou
Bbm/Gb
    Por muitas vezes tentou
    Como cego na multidão
Bbm9        Bbm9/Ab
    Que procura seu caminho
 Bbm/Gb                 Gb  F  Db  Bb
Mas sozinho nada encontra

E|-------------------------------|
B|-------------------------------|
G|-------------------------------|
D|---4-3-------------------------|
A|-------4-----------------------|
E|---------6---------------------|

Bbm9         Bbm9/Ab
    Quantas vezes eu te chamei
    Bbm/Gb           Gb  F  Db  Bb
    E você não entendeu

E|-------------------------------|
B|-------------------------------|
G|-------------------------------|
D|---4-3-------------------------|
A|-------4-----------------------|
E|---------6---------------------|

Fm7                  Gb
     Se você parasse um pouco e ouvisse a minha voz
Db9              Ab
    Te escolhi, te busquei
Bbm                Gb
    Sempre ao seu lado eu caminhei
Db9     Ab        Bb   Db9
    Eu sofri por você

Bbm9         Bbm9/Ab
     Eu te procuro
            Bbm/Gb
E você por tantos lugares buscou

E|-------------------------------|
B|--------6/---9/----11/---------|
G|-------------------------------|
D|-------------------------------|
A|-------------------------------|
E|-------------------------------|

Bbm            Bbm/Ab                    Bbm/Gb
     Mas nunca entendeu que eu sempre estive perto de você

Gb  F  Db  Bb

E|-------------------------------|
B|-------------------------------|
G|-------------------------------|
D|---4-3-------------------------|
A|-------4-----------------------|
E|---------6---------------------|

Bbm           Ab                     Gb
     Eu te escolhi, quero te conquistar
                   Gb-     F   Eb  Bb
     Te mostrar o verdadeiro amigo

E|-------------------------------|
B|-------------------------------|
G|-------------------------------|
D|---4-3-------------------------|
A|-------6-----------------------|
E|---------6---------------------|

Fm7                    Gb
    Se você parar e ouvir a minha voz

E|----------------------------------|
B|--9--6----6-/-4-------------------|
G|--------6--------6---------6------|
D|--------------------4-3-4---------|
A|----------------------------------|
E|----------------------------------|

Db9             Ab
    Te escolhi,te busquei
Bbm                Gb
    Sempre ao seu lado eu caminhei
Db9     Ab        Bb   Db9
    Eu sofri por você
 Gb
    Na cruz provei o meu amor

Db9             Ab
    Te escolhi,te busquei
Bbm                Gb
    Sempre ao seu lado eu caminhei
Db9     Ab        Bb
    Eu sofri por você

[Solo]

E|---------------------------|---------------------------------|----------------------------|
B|-7~6-----------------------|-7/9-7-6---------------------9--6|---------11-13-14-14b16-14~-|
G|-----6-----8b10--8^10--6---|--------8-6-5--8b10--8^10--6-----|-10-11-13-------------------|
D|-------8-------------------|---------------------------------|----------------------------|
A|-----------------------4---|---------------------------------|----------------------------|
E|---------------------------|---------------------------------|----------------------------|

E|--------------------|----------------|------------------------------------------|
B|-13/14-13-----13----|-14b16-16b18-14~|-----------------11-13-14/17b-------------|
G|---------13-15--13~-|----------------|--------11-13-15--------------------------|
D|--------------------|----------------|11-13-15----------------------------------|
A|--------------------|----------------|------------------------------------------|
E|--------------------|----------------|------------------------------------------|

E|-16p13-----------------------------11h14p11-13/11/9----------------------------------|
B|------14-------------------11/13/14-----------------11-------------------------------|
G|--------13/10------10/11/13-----------------------------10--------------10-11-13-10~-|
D|--------------11/13-----------------------------------------13-10-11-13--------------|
A|-------------------------------------------------------------------------------------|
E|-------------------------------------------------------------------------------------|

E|---------10h13p10-------------------16--------------|
B|-------11--------13b15~~-16b---16b--16b---16-14-16--|
G|-----10---------------------------------------------|
D|---12-----------------------------------------------|
A|-13-------------------------------------------------|
E|----------------------------------------------------|
                                           
E|----------------------------------16-18-20b21~~~--|
B|--------------------------16-18-19----------------|
G|-----------------15-16-18-------------------------|
D|---------15-16-18---------------------------------|
A|--------------------------------------------------|
E|--------------------------------------------------|

E|-20b21-20r~~--16b18--16b18-16-16b18~~-----|
B|------------------------------------------|
G|------------------------------------------|
D|------------------------------------------|
A|------------------------------------------|
E|------------------------------------------|

E|-20b21~--18-16p18h16----16----|-16------------|-14-14-14-14-13-11-----------------|----------------------------------------|
B|---------------------19----18-|-16b---16bFULL-|------------------14-13-11----13-9-|-------------------------11-13b15----11-|
G|------------------------------|---------------|-----------------------------------|-----------------11-13-15---------------|
D|------------------------------|---------------|-----------------------------------|---------11-13-15-----------------------|
A|------------------------------|---------------|-----------------------------------|-11-13-15-------------------------------|
E|------------------------------|---------------|-----------------------------------|----------------------------------------|

E|--------------------|
B|-7~-6---------------|
G|-----6--------------|
D|-------8----4-3-3---|
A|----------------1---|
E|----------------1---|

0 comentários

    mostrar mais comentários

    Conseguiu tocar?

    16tocaram1ainda não

    Grave um vídeo tocando Te Escolhi e mande pra gente!

    00:00 / 00:00
    outros vídeos desta música
    repetirqualidadeautomática
    Outro vídeos desta música
      00:00 / 00:00
      automática
      OK