Enviar cifraEntrar

Moments

One Direction

Cifra: Principal
exibições 70.920
Tom: D

       D                           A
E|---2-----2---------------------0-----0---------------------------|
B|-------3---3-----------------------2---2-------------------------|
G|-----2--------(x4)---------------2------(x4)---------------------|
D|---0-------------------------------------------------------------|
A|-------------------------------0---------------------------------|
E|-----------------------------------------------------------------|


       Bm
E|--1------1-------------------------------------------------------|
B|-------2---2-----------------------------------------------------|
G|-----3----------(2x)---------------------------------------------|
D|-----------------------------------------------------------------|
A|--1--------------------------------------------------------------|
E|-----------------------------------------------------------------|


     G (Without having fingers 3&4)
E|-----------------------------------------------------------------|
B|-0-----0----0p2-----2-----2h3-----3----3h4-----4-----------------|
G|-----0---0--------0---0---------0---0--------0---0---------------|
D|---0------------0-------------0------------0---------------------|
A|-----------------------------------------------------------------|
E|-3----------3-------------3------------3-------------------------|


         D
Shut the door turn the light off
            A
I wanna be with you

I wanna feel your love
            Bm
I wanna lay beside you
                                  G
I cannot hide this even though I try

            D
Hard beats harder

Time escapes me
          A
Trembling hands touch skin
                  Bm
It makes this harder
                              G
And the tears stream down my face
Bm           A               D                G
If we could only have this life for one more day
Bm           A              G
If we could only turn back time

              D
You know I'll be
                                     A
Your life, your voice your reason to be

My love, my heart
                 Bm
Is breathing for this

Moment in time
                        G
I'll find the words to say

Before you leave me today

         D
Close the door

Throw the key
                A
Don't wanna be reminded

Don't wanna be seen
               Bm
Don't wanna be without you

My judgement is clouded
                G
Like the night sky
     D
Undecided

Voice is numb
              A
Try to scream out my lungs
                      Bm
But it makes this harder
                              G
And the tears stream down my face
Bm           A              D                 G
If we could only have this life for one more day
Bm           A              G
If we could only turn back time

              D
You know I'll be
                                     A
Your life, your voice your reason to be

My love, my heart
                 Bm
Is breathing for this

Moment in time
                        G
I'll find the words to say

Before you leave me today

Bm                  A
Flashes left in my mind
                  G
Going back to the time

Playing games in the street
D                      Bm
Kicking balls with my feet
                   A
Dancing on with my toes
                       G
Standing close to the edge
                                   D            Bm
There's a pile of my clothes at the end of your bed
                  A
As I feel myself fall
                   D
Make a joke of it all

           D
You know I'll be
                                     A
Your life, your voice your reason to be

My love, my heart
                 Bm
Is breathing for this

Moment in time
                        G
I'll find the words to say

Before you leave me today

              D
You know I'll be
                                     A
Your life, your voice your reason to be

My love, my heart
                 Bm
Is breathing for this

Moment in time
                        G
I'll find the words to say

Before you leave me today
  • 1
  • 2
  • 3
  • 4
  • 5
  • 6
  • 7
  • 8
  • 9
  • 10
  • 11
  • 12
    Acordes para:
      Composição: Ed Sheeran / Si HulbertColaboração e revisão:

      0 comentários

        mostrar mais comentários

        Conseguiu tocar?

        42tocaram0ainda não

        Grave um vídeo tocando Moments e mande pra gente!

        00:00 / 00:00
        outros vídeos desta música
        repetirqualidadeautomática
        • automática
        Outro vídeos desta música
          00:00 / 00:00
          automática
          • automática
          Acordes para:violão e guitarra
          dificuldadeexibiçõescontribuições
          fecharplay/pause subir/descer velocidade
            acordes
            fechar
            OK
            Feedback