Cifra Club

You And I

One Direction

Cifra: Principal (violão e guitarra)
exibições 239.111
Tom: Db (forma dos acordes no tom de C) Capotraste na 1ª casa
[Intro] F  G  Am  C5  F

E|---------------------------------|
B|--------5--7--9------------------|
G|---------------------------------|
D|---------------------------------|
A|---------------------------------|
E|---------------------------------|

G
 I figured it out
G                      D/F#      Em
I figured it out from black and white
Em
Seconds and hours
C5
 Maybe they had to take some time
G
 I know how it goes
G                        D/F#      Em
I know how it goes from wrong and right
Em
Silence and sound
C5                               Em     D5/F#  C5
 Did they ever hold each other  tight  like   us?
             Em     D5/F#  C5
Do they ever fight  like   us?

[Refrão]

F   G   Am
You and I
C5                       F
We don't wanna be like them
Em                      F
We can make it till the end
G
Nothing can come between
F   G   Am
You and I
C                   F        Em                 F
Not even the Gods above can separate the two of us
   G
No nothing can come between
F   G   Am   C5   F
You and I
   F   G  Am
Oh you and I

 ( C5  F )

E|---------------------------------|
B|--------5--6--5-----------5------|
G|-5--7------------7--5-7----------|
D|-------------------------------7-|

G
 I figured it out
G                   D/F#
Saw the mistakes of up and down
Em
 Meet in the middle
C5
 There's always room for common ground
G
 I see what it's like
G                         D/F#
I see what it's like for day and night
Em
 Never together
C5                                      Em    D5/F#  C5
'Cause they see things in a different  light like   us
           Em    D5/F# C5
They never tried like us

[Refrão]

F   G   Am
You and I
C5                       F
We don't wanna be like them
Em                      F
We can make it till the end
G
Nothing can come between
F   G   Am
You and I
C5                 F         Em                  F
Not even the Gods above can separate the two of us (the two of us, of us, of us...)

[Solo] F  G  Am  C5
       F  Em  F

E|--0--0--0--0--0--0--0--0-0--0--0--0--0--0--0--0-0--0--0--0--------------|
B|--1--1--1--1--1--1s-5--5-5--5--5--5--5--5--5--5-5--5--5--5--5s-13-13-13-|
G|------------------------------------------------------------------------|
D|------------------------------------------------------------------------|
A|------------------------------------------------------------------------|
E|------------------------------------------------------------------------|

E|----------------------------------------------------------------------------|
B|12-12-12-12-10-10-10-10s8--8--8--8s-13-13-13-13-12-12-12-12-10-10-10-10s8~~-|
G|----------------------------------------------------------------------------|
D|----------------------------------------------------------------------------|
A|----------------------------------------------------------------------------|
E|----------------------------------------------------------------------------|

G               F   G   Am
 'Cause you and I
C5                       F
We don't wanna be like them
Em                      F
We can make it till the end
G
Nothing could come between
F   G   Am
You and I
C                  F         Em                 F
Not even the Gods above can separate the two of us
   G
No nothing can come between
F   G   Am
You and I

[Final]

         C5  F
 You and I
     F   G  Am   C5   F
 Oh  you and I
     F   G  Am
 Oh you and I
                       C5           F
 We can make it if we try, you and mine
    F    G  Am   C5   F
 Oh you and I

0 comentários

mostrar mais comentários

Conseguiu tocar?

59tocaram3ainda não

Grave um vídeo tocando You And I e mande pra gente!

00:00 / 00:00
outros vídeos desta música
repetirqualidadeAutomático
Outro vídeos desta música
    00:00 / 00:00
    OK