Cifra Club

Binkusu No Sake

One Piece

Cifra: Principal (violão e guitarra)
Selo Cifra Club: esta cifra foi revisada para atender aos critérios oficiais da nossa Equipe de Qualidade.
tom: Bb
E|---6-6-6---8-6---6------|
B|-8-------------8--------|
G|------------------------|
D|------------------------|
A|------------------------|
E|------------------------|

E|---6-6-6---8-6----------|
B|-8-------------8-4------|
G|------------------------|
D|------------------------|
A|------------------------|
E|------------------------|

E|-6-3-------------6-3-------------------------4-3-3-------|
B|-----6-4---3-4-------6-4---4------4------3-4-------6-4-6-|
G|---------5---------------5---3--5---3--5-----------------|
D|---------------------------------------------------------|
A|---------------------------------------------------------|
E|---------------------------------------------------------|

E|-6-3-------------6-3-------------------------4-3-3--------|
B|-----6-4---3-4-------6-4---4------4------3-4------4-6-----|
G|---------5---------------5---3--5---3--5--------------7-8-|
D|----------------------------------------------------------|
A|----------------------------------------------------------|
E|----------------------------------------------------------|

00:00 / 00:00
Outros vídeos desta música
Repetir
Outros vídeos desta música
42.707 exibições
    • ½ Tom
    • A
    • Bb
    • B
    • C
    • Db
    • D
    • Eb
    • E
    • F
    • F#
    • G
    • Ab
  • Adicionar à lista

Afinação da cifra

Afinador online

    0 comentários

    Ver todos os comentários

    Entre para o Cifra Club PRO

    Tenha acesso a benefícios exclusivos no App e no Site

    • Chega de anúncios

    • Mais recursos no app do Afinador

    • Atendimento Prioritário

    • Aumente seu limite de lista

    • Ajude a produzir mais conteúdo

    00:00 / 00:00

    Cifra Club Pro

    Aproveite o Cifra Club com benefícios exclusivos e sem anúncios
    Cifra Club Pro
    Aproveite o Cifra Club com benefícios exclusivos e sem anúncios
    OK