Cifra Club

Run Run Run

One Piece

Cifra: Principal (violão e guitarra)
Selo Cifra Club: esta cifra foi revisada para atender aos critérios oficiais da nossa Equipe de Qualidade.
tom: B
C# Bb D#m E
E|-9:--------------|-10--------------|-11:-------------|-12------12--16--|
B|-----------------|-----11:---------|-----------------|-----12----------|
G|-----------------|-----------------|-----------------|-----------------|
D|-----------------|-----------------|-----------------|-----------------|
A|-----------------|-----------------|-----------------|-----------------|
E|-----------------|-----------------|-----------------|-----------------|

B F# B C# D D# E F
E|-14--11:---------|-9-----7-6:------|-2-------4-------|-5---6---7---8---|
B|-----12:---------|-11----9-7:------|-4-------6-------|-7---8---9---10--|
G|-----------------|-----------------|-4-------6-------|-7---8---9---10--|
D|-----------------|-----------------|-4-------6-------|-7---8---9---10--|
A|-----------------|-----------------|-2-------4-------|-5---6---7---8---|
E|-----------------|-----------------|-----------------|-----------------|

F# B F#
Hamidashita kimochi tsunagara nakute
B F#
Kimi no te o gyutto girikaesu yo
B F#
Hitori demo boku wa arukidasu kara
D#m B F#
Tooku made zutto mitsumeteite ne

D#m B F#
E|-----4---6-----9-|-5-6---6---------|
B|-7-----------7---|-----9---7:------|
G|-----------6-----|-----------------|
D|-----------------|-----------------|
A|-----------------|-----------------|
E|-----------------|-----------------|

F# C# B D#m
Kesa kara chotto kangaeteita
F# C# F#
Doushite konna ni atsui no
C# B D#m
Itsumo yori mo hayaashi ni naru
F# C# F#
Mada minu kaze kanjitai 

B C#
Itsu kara ka
D#m Bbm B
sonna koto bakari ga
F# C#
hanarenai yo

F# B F#
Hamidashita kimochi tsunagara nakute
B F#
Kimi no te o gyutto girikaesu yo
B F#
Hitori demo boku wa arukidasu kara
D#m B F#
Tooku made zutto mitsumeteite ne

D#m B F#
E|-----4---6-----9-|-5-6---6---------|
B|-7-----------7---|-----9---7:------|
G|-----------6-----|-----------------|
D|-----------------|-----------------|
A|-----------------|-----------------|
E|-----------------|-----------------|

E|-9:--------------|-10--------------|-11:-------------|-12------12--16--|
B|-----------------|-----11:---------|-----------------|-----12----------|
G|-----------------|-----------------|-----------------|-----------------|
D|-----------------|-----------------|-----------------|-----------------|
A|-----------------|-----------------|-----------------|-----------------|
E|-----------------|-----------------|-----------------|-----------------|
E|-14--11:---------|-8---7---6-------|-2-------4-------|-5---6---7---8---|
B|-----12:---------|-11--9---7-------|-4-------6-------|-7---8---9---10--|
G|-----------------|-----------------|-4-------6-------|-7---8---9---10--|
D|-----------------|-----------------|-4-------6-------|-7---8---9---10--|
A|-----------------|-----------------|-2-------4-------|-5---6---7---8---|
E|-----------------|-----------------|-----------------|-----------------|

F# C# B D#m
Yuube wa chotto nemurenakatta
F# C# F#
Doushite konna ni tooi no

B C#
Kanaetai
D#m Bbm B
omoi ga aseru kara
C#
oikakeru yo 
F# B F#
Kakedashita kimochi tsukamaetakute
B F#
Jibun sae mou oikoshite yuku yo
B F#
Tobidashita yume o dakishimetetai
D#m B F#
Issho nara boku wa hashitte yukeru

D#m B F#
E|-----4---6-----9-|-5-6---6---------|
B|-7-----------7---|-----9---7:------|
G|-----------6-----|-----------------|
D|-----------------|-----------------|
A|-----------------|-----------------|
E|-----------------|-----------------|

N/C)
Itsu no hi

ka kono omoi todoku to
C#
shinjiteru yo

(N/C) G C G
Hamidashita kimochi dakishimeta mama
C G
Kaze no naka zutto hashiritsuzukeru
C G
Tobidashita yume wa tachitomaranai
Em C G
Tsukinukeru omoi yobisamashitai
C G
Hamidashita kimochi tsunagara nakute
C G
Kimi no te o gyutto girikaesu yo
C G
Hitori demo boku wa arukidasu kara
Em C G
Tooku made zutto mitsumeteite ne

E|-----5---7-----10|-6-7---7---------|
B|-8-----------8---|-----10--8:------|
G|-----------7-----|-----------------|
D|-----------------|-----------------|
A|-----------------|-----------------|
E|-----------------|-----------------|
00:00 / 00:00
Outros vídeos desta música
Repetir
Outros vídeos desta música
7.214 exibições
    • ½ Tom
    • A
    • Bb
    • B
    • C
    • Db
    • D
    • Eb
    • E
    • F
    • F#
    • G
    • Ab
  • Adicionar à lista

Afinação da cifra

Afinador online

    0 comentários

    Ver todos os comentários

    Entre para o Cifra Club PRO

    Tenha acesso a benefícios exclusivos no App e no Site

    • Chega de anúncios

    • Mais recursos no app do Afinador

    • Atendimento Prioritário

    • Aumente seu limite de lista

    • Ajude a produzir mais conteúdo

    00:00 / 00:00

    Cifra Club Pro

    Aproveite o Cifra Club com benefícios exclusivos e sem anúncios
    Cifra Club Pro
    Aproveite o Cifra Club com benefícios exclusivos e sem anúncios
    OK