Cifra Club

Fica do Meu Lado

Onze:20

Cifra: Principal
exibições 320.461
Tom: F# (com acordes na forma de G) Afinação: Eb Ab Db Gb Bb Eb
     C9           G
E|------3------------3------|
B|----3---3-3------3---3-3--|
G|---0-----0-0----0-----0-0-|  (3x)
D|--------------------------|
A|--3-----------------------|
E|---------------3----------|

     D4           D4
E|------3------------3------|
B|----3---3-3------3---3-3--|
G|---2-----2-2----2-----2-2-|
D|--0------------0----------|
A|--------------------------|
E|--------------------------|

               C9                G
Deus é que me livre ficar sem você
             C9                  G
Fica do meu lado que não falta amor
             C9                   G
Sem o seu carinho eu vou enlouquecer
                 D4
Vem, chega mais perto me dá o seu calor
               C9                  G
Deus sabe que nada eu vou poder fazer
              C9               G
Se um dia eu perco todo esse amor
             C9                G
Vem ficar comigo quando escurecer
                   D4
Eu quero estar contigo seja onde for

[Solo]  C9  G  C9  G
        C9  G  C9  G

             C9          G               C9      G
E|----------------------------------------------------|
B|-10h12-----------------------10h12------------------|
G|-------12-9~--12--12/14--12--------12-9~--12--------|
D|----------------------------------------------12--9-|
A|----------------------------------------------------|
E|----------------------------------------------------|

             C9          G               C9       G
E|----------------------------------------------------|
B|-10h12-----------------------10h12------------------|
G|-------12-9~--12--12/14--12--------12-9~--14b15-12~~|
D|----------------------------------------------------|
A|----------------------------------------------------|
E|----------------------------------------------------|

    C9                G                   C9    G
Eu sei que o seu mundo girou só pra me encontrar
   C9           G                        C9  G
Parece ter feito no vento um lugar pra amar
               C9
Então o tempo passa
              G
Talvez fique sem graça
                  C9                 G
Ou nunca mais eu faço esse sorriso pra você
                C9           G
Mas só que ela passa e todo mundo vê
                        D4
Que o meu plano já deu certo
Só de tentar te dizer

               C9                G
Deus é que me livre ficar sem você
             C9                  G
Fica do meu lado que não falta amor
             C9                   G
Sem o seu carinho eu vou enlouquecer
                 D4                  D
Vem, chega mais perto me dá o seu calor
               C9                  G
Deus sabe que nada eu vou poder fazer
              C9               G
Se um dia eu perco todo esse amor
             C9                G
Vem ficar comigo quando escurecer
                   D4             D
Eu quero estar contigo seja onde for

[Solo]  C9  G  C9  G
        C9  G  C9  G

              C9          G                C9      G
E|-------------------------------------------------------|
B|--10h12------------------------10h12-------------------|
G|--------12-9~--12--12/14--12---------12-9~--12---------|
D|------------------------------------------------12--9--|
A|-------------------------------------------------------|
E|-------------------------------------------------------|

              C9          G                C9       G
E|-------------------------------------------------------|
B|--10h12------------------------10h12-------------------|
G|--------12-9~--12--12/14--12---------12-9~--14b15-12~~-|
D|-------------------------------------------------------|
A|-------------------------------------------------------|
E|-------------------------------------------------------|

    C9                G                   C9    G
Eu sei que o seu mundo girou só pra te encontrar
   C9              G                          C9  G
Parece que achei no seu peito um lugar pra morar
                C9
Tirei o seu sossego
         G
Abri os teus segredos
                 C9                 G
E vi nos seus defeitos um caminho pra entender
               C9               G
Que vida logo passa e quando a gente vê
                D4
Já é tarde pra dizer o quanto eu gosto de você

               C9                G
Deus é que me livre ficar sem você
             C9                  G
Fica do meu lado que não falta amor
             C9                   G
Sem o seu carinho eu vou enlouquecer
                 D4                  D
Vem, chega mais perto me dá o seu calor
               C9                  G
Deus sabe que nada eu vou poder fazer
              C9               G
Se um dia eu perco todo esse amor
             C9                G
Vem ficar comigo quando escurecer
                   D4             D   Em
Eu quero estar contigo seja onde for

A                        Em A
  Eu quero você pra sempre
                 Em   A
Vem me dá seu calor
                  Em  A   G/B
Vem pra perto de mim

               C9                G
Deus é que me livre ficar sem você
             C9                  G
Fica do meu lado que não falta amor
             C9                   G
Sem o seu carinho eu vou enlouquecer
                 D4                  D
Vem, chega mais perto me dá o seu calor
               C9                  G
Deus sabe que nada eu vou poder fazer
              C9               G
Se um dia eu perco todo esse amor
             C9                G
Vem ficar comigo quando escurecer
                   D4             D
Eu quero estar contigo seja onde for
               C9                G
Deus é que me livre ficar sem você
             C9                  G
Fica do meu lado que não falta amor
             C9                   G
Sem o seu carinho eu vou enlouquecer
                 D4                  D
Vem, chega mais perto me dá o seu calor
               C9                  G
Deus sabe que nada eu vou poder fazer
              C9               G
Se um dia eu perco todo esse amor
             C9                G
Vem ficar comigo quando escurecer
                   D4             D
Eu quero estar contigo seja onde for


[Solo]  C9  G  C9  G
        C9  G  C9  G

              C9          G                C9      G
E|-------------------------------------------------------|
B|--10h12------------------------10h12-------------------|
G|--------12-9~--12--12/14--12---------12-9~--12---------|
D|------------------------------------------------12--9--|
A|-------------------------------------------------------|
E|-------------------------------------------------------|

              C9          G                C9       G
E|-------------------------------------------------------|
B|--10h12------------------------10h12-------------------|
G|--------12-9~--12--12/14--12---------12-9~--14b15-12~~-|
D|-------------------------------------------------------|
A|-------------------------------------------------------|
E|-------------------------------------------------------|
Acordes para:

    0 comentários

      mostrar mais comentários

      Conseguiu tocar?

      36tocaram0ainda não

      Grave um vídeo tocando Fica do Meu Lado e mande pra gente!

      00:00 / 00:00
      outros vídeos desta música
      repetirqualidadeautomática
      Outro vídeos desta música
        00:00 / 00:00
        automática
        OK