Cifra Club

Aprenda

Damnation

Opeth

Tab de baixo: Principal
ANGRY BEAVER BASS TABS


G
D
A
E Standard Tuning

Intro (just repeat this over and over)
[------]
[------]
[------]
[2----3]

Chorus
[-------------------------------]
[-------------------------------]
[------4h6--6-6-6---------5-----]
[4-4-4------------5--5--7---7--4]

Post-Chorus
[----------------7----7--]
[--------------7----7---7]
[3-2-0-------------------]
[-------3-2-0------------]

[-------------]
[3-2-0--------]
[-------3-2-0-]
[-------------]
 
[--------------------]
[--------------------]
[0-0-0-4h6--6-6---6--] Play this 4 times the first time
[---------------6---6] and then 2 times when played later.

Repeat Intro as Verse

Repeat Chorus

Repeat Post-Chorus

Guitar Solo
[---------------------7-----7--]
[-----------------5/7-----7---7]
[5---5---5---5---5-------------]
[------------------------------]

[----------------------------7--]
[------------------------5/7---7]
[3-0-1----3-0-1-------3---------]
[---------------3-0-1-----------]

[-----------------7--5--------]
[-------------5/7-------7--5--]
[5---5---5---5---------------7]
[-----------------------------]

[----------------------------7--]
[------------------------5/7---7]
[3-0-1----3-0-1-------3---------]
[---------------3-0-1-----------]

End on A[5]

Repeat Verse

Repeat Chorus

Repeat Post-Chorus

Repeat Guitar Solo until end of song.

Questions? Comments? Just contact me. :)
462 exibições

0 comentários

Ver todos os comentários

Conseguiu tocar?

0 Tocaram 0 Ainda não

Grave um vídeo tocando Damnation e nos envie!

00:00 / 00:00
outros vídeos desta música
repetir qualidade Automático
Outros vídeos desta música
00:00 / 00:00
Automático

Cifra Club Pro

Aproveite o Cifra Club com benefícios exclusivos e sem anúncios
Cifra Club Pro
Aproveite o Cifra Club com benefícios exclusivos e sem anúncios
OK