Cifra Club

Meu Erro

Os Paralamas do Sucesso

Cifra: Principal (violão e guitarra)
Selo Cifra Club: esta cifra foi revisada para atender aos critérios oficiais da nossa Equipe de Qualidade.
tom: C
[Intro] F5(9)  Fm

[Tab - Intro]

Parte 1 de 2

   F5(9)
E|-3--------1--------0----------------------|
B|----1--------1--------1-----3-----1-------|
G|-------0--------0--------0-----0-----0----|
D|-3--------3--------3----------------------|
A|------------------------------------------|
E|------------------------------------------|

Parte 2 de 2

            Fm
E|------------------------------------------|
B|-0--1--3--3---1---0---1---3---1-----------|
G|----------1---1---1---1---1---1-----------|
D|----------3---3---3---3---3---3-----------|
A|------------------------------------------|
E|------------------------------------------|

[Riff Intro] C  C7  F  Fm
             C/G  C7/G  F7M/A  Fm/Ab
             C/G  C/Bb  F7M/A  Fm/Ab
             C/G  C/Bb  F7M/A  Fm/Ab

[Tab - Riff Intro]

Parte 1 de 4

   C        C7       F        Fm
E|------------------------------------------|
B|-1----X---1----x---1----X---1----x--------|
G|-0----X---3----x---2----X---1----x--------|
D|-2----X---2----x---3----X---3----x--------|
A|-3----X---3----x--------X--------x--------|
E|------------------------------------------|

Parte 2 de 4

   C/G      C7/G     F7M/A    Fm/Ab
E|------------------------------------------|
B|-1----X---1----x---1----X---1----x--------|
G|-0----X---3----x---2----X---1----x--------|
D|-2----X---2----x---3----X---3----x--------|
A|------X--------x---0----X--------x--------|
E|-3--------3-----------------4-------------|

Parte 3 de 4 

   C/G      C/Bb     F7M/A    Fm/Ab
E|------------------------------------------|
B|-1----X---1----x---1----X---1----x--------|
G|-0----X---0----x---2----X---1----x--------|
D|-2----X---2----x---3----X---3----x--------|
A|------X---1----x---0----X--------x--------|
E|-3--------------------------4-------------|

Parte 4 de 4

   C/G      C/Bb     F7M/A    Fm/Ab
E|-------------------0------0-1-------1-----|
B|-1----X---1----X---1----1---1-----1-------|
G|-0----X---0----X---2--2-----1---1---------|
D|-2----X---2----X---3--------3-------------|
A|------X---1----X---0----------------------|
E|-3--------------------------4-------------|

[Primeira Parte]

[Tab - Primeira Parte]

Parte 1 de 2

    C                 Em7
E|------------------------------------------|
B|-1----X---1----x---3----X---3----x--------|
G|-0----X---0----x---0----X---0----x--------|
D|-2----X---2----x---2----X---2----x--------|
A|-3----X---3----x--------X--------x--------|
E|-------------------0--------0-------------|

Parte 2 de 2

   F9                Fm9
E|-3--------3--------3--------3-------------|
B|-1----X---1----x---1----X---1----x--------|
G|-2----X---2----x---1----X---1----x--------|
D|-3----X---3----x---3----X---3----x--------|
A|------X--------x--------X--------x--------|
E|------------------------------------------|

Parte 1 de 2

   C                 Em7
E|------------------------------------------|
B|-1----X---1----x---3----X---3----x--------|
G|-0----X---0----x---0----X---0----x--------|
D|-2----X---2----x---2----X---2----x--------|
A|-3----X---3----x--------X--------x--------|
E|-------------------0--------0-------------|

Parte 2 de 2

   F9                Fm9
E|-3--------3--------3--------3-------------|
B|-1----X---1----x---1----X---1----x--------|
G|-2----X---2----x---1----X---1----x--------|
D|-3----X---3----x---3----X---3----x--------|
A|------X--------x--------X--------x--------|
E|------------------------------------------|

C                          Em7
  Eu quis dizer você não quis escutar
  F9                   Fm9
Agora não peça não me faça promessas

         C                    Em7
Eu não quero te ver nem quero acreditar
         F9                Fm9
Que vai ser diferente que tudo mudou

[Segunda Parte]

[Tab - Segunda Parte]

Parte 1 de 4

   Em7               Am7      Am7/G
E|-3--------3-------------------------------|
B|-3----X---3----x---1----X---1----x--------|
G|-0----X---0----x---0----X---0----x--------|
D|------X--------x---2----X---2----x--------|
A|------X--------x---0----X--------x--------|
E|-0--------0-----------------3-------------|

Parte 2 de 4

   F#m7(5-)          Fm7M
E|------------------------------------------|
B|-1----X---1----x---1----X---1----x--------|
G|-2----X---2----x---1----X---1----x--------|
D|-2----X---2----x---2----X---2----x--------|
A|------X--------x--------X--------x--------|
E|-2--------2--------1--------1-------------|

Parte 3 de 4 

   C/G      C7/G     F7M/A    Fm/Ab
E|------------------------------------------|
B|-1----X---1----x---1----X---1----x--------|
G|-0----X---3----x---2----X---1----x--------|
D|-2----X---2----x---3----X---3----x--------|
A|------X--------x---0----X--------x--------|
E|-3--------3-----------------4-------------|

Parte 4 de 4

   C/G      C7/G     F7M/A    Fm/Ab
E|-------------------0------0-1-------1-----|
B|-1----X---1----X---1----1---1-----1-------|
G|-0----X---3----X---2--2-----1---1---------|
D|-2----X---2----X---3--------3-------------|
A|------X--------X---0----------------------|
E|-3--------3-------------------------------|

      Em7                 Am7        Am7/G
Você diz não saber o que houve de errado
        F#m7(5-)         
E o meu erro foi crer 
       Fm7M                 C/G  C7/G
Que estar ao seu lado bastaria

         F7M/A     Fm/Ab          C/G  C7/G
Ah! Meu Deus, era tudo que eu queria
    F7M/A              Fm            
Eu dizia seu nome, não    me abandone 
       C
Jamais

[Riff Intro] C  C/Bb  F7M/A  Fm/Ab
             C/G  C7/G  F7M/A  Fm/Ab

[Tab - Riff Intro]

Parte 1 de 2

   C        C/Bb     F7M/A    Fm/Ab
E|------------------------------------------|
B|-1----X---1----X---1----X---1----x--------|
G|-0----X---0----X---2----X---1----x--------|
D|-2----X---2----X---3----X---3----x--------|
A|-3----X---1----X---0----X--------x--------|
E|----------------------------4-------------|

Parte 2 de 2

   C/G      C7/G     F7M/A    Fm/Ab
E|-------------------0------0-1-------1-----|
B|-1----X---1----X---1----1---1-----1-------|
G|-0----X---3----X---2--2-----1---1---------|
D|-2----X---2----X---3--------3-------------|
A|------X--------X---0----------------------|
E|-3--------3-----------------4-------------|

[Terceira Parte]

[Tab - Terceira Parte]

Parte 1 de 2

   C                 Em7
E|------------------------------------------|
B|-1----X---1----x---3----X---3----x--------|
G|-0----X---0----x---0----X---0----x--------|
D|-2----X---2----x---2----X---2----x--------|
A|-3----X---3----x--------X--------x--------|
E|-------------------0--------0-------------|

Parte 2 de 2

   F9                Fm9
E|-3--------3--------3--------3-------------|
B|-1----X---1----x---1----X---1----x--------|
G|-2----X---2----x---1----X---1----x--------|
D|-3----X---3----x---3----X---3----x--------|
A|------X--------x--------X--------x--------|
E|------------------------------------------|

Parte 1 de 2

   C                 Em7
E|------------------------------------------|
B|-1----X---1----x---3----X---3----x--------|
G|-0----X---0----x---0----X---0----x--------|
D|-2----X---2----x---2----X---2----x--------|
A|-3----X---3----x--------X--------x--------|
E|-------------------0--------0-------------|

Parte 2 de 2

   F9                Fm9
E|-3--------3--------3--------3-------------|
B|-1----X---1----x---1----X---1----x--------|
G|-2----X---2----x---1----X---1----x--------|
D|-3----X---3----x---3----X---3----x--------|
A|------X--------x--------X--------x--------|
E|------------------------------------------|

C                        Em7
  Mesmo querendo eu não vou me enganar
       F9                      
Eu conheço os seus passos, 
    Fm9
eu vejo os seus erros

        C            Em7
Não há nada de novo,     

Ainda somos iguais
   F9                  
Então não me chame 
    Fm9
Não olhe pra trás

[Segunda Parte]

[Tab - Segunda Parte]

Parte 1 de 4

   Em7               Am7(9)   Am7(9)/G
E|------------------------------------------|
B|-3----X---8----x---12---X---12---x--------|
G|-0----X---7----x---12---X---12---x--------|
D|-2----X---5----x--------X--------x--------|
A|------X---7----x---12---X---10---x--------|
E|-0----------------------------------------|

Parte 2 de 4

   F#m7(5-)          Fm(7M)
E|------------------------------------------|
B|-10---X---10---x---9----X---9----x---9----|
G|-9----X---9----x---9----X---9----x---9----|
D|-10---X---10---x---10---X---10---x---10---|
A|-9----X---9----x---8----X---8----x---8----|
E|------------------------------------------|

Parte 3 de 4

   C/G      C7/G     F7M/A    Fm/Ab
E|------------------------------------------|
B|-1----X---1----x---1----X---1----x--------|
G|-0----X---3----x---2----X---1----x--------|
D|-2----X---2----x---3----X---3----x--------|
A|------X--------x---0----X--------x--------|
E|-3--------3-----------------4-------------|

Parte 4 de 4

   C/G      C7/G     F7M/A    Fm
E|-------------------0------0-1-------1-----|
B|-1----X---1----X---1----1---1-----1-------|
G|-0----X---3----X---2--2-----1---1---------|
D|-2----X---2----X---3--------3-------------|
A|------X--------X---0----------------------|
E|-3--------3-------------------------------|

      Em7                 Am7(9)     
Você diz não saber o que houve de 
Am7(9)/G
Errado
        F#m7(5-)           
E o meu erro foi crer
       Fm7M                 C/G  C7/G
Que estar ao seu lado bastaria
         F7M/A     Fm/Ab          C/G  C7/G
Ah! Meu Deus, era tudo que eu queria
    F7M/A              Fm/Ab            
Eu dizia seu nome, não    me abandone 
       C/G  C/Bb  F7M/A  Fm/Ab
Jamais

[Final] 

[Tab - Final]

Parte 1 de 4

   C/G      C/Bb     F7M/A    Fm/Ab
E|------------------------------------------|
B|-1----X---1----x---1----X---1----x--------|
G|-0----X---0----x---2----X---1----x--------|
D|-2----X---2----x---3----X---3----x--------|
A|------X---1----x---0----X--------x--------|
E|-3--------------------------4-------------|

Parte 2 de 4

   C/G      C/Bb     F7M/A    Fm/Ab
E|------------------------------------------|
B|-1----X---1----x---1----X---1----x--------|
G|-0----X---0----x---2----X---1----x--------|
D|-2----X---2----x---3----X---3----x--------|
A|------X---1----x---0----X--------x--------|
E|-3--------------------------4-------------|

Parte 3 de 4

   C/G      C7/G     F7M/A    Fm/Ab
E|------------------------------------------|
B|-1----X---1----x---1----X---1----x--------|
G|-0----X---3----x---2----X---1----x--------|
D|-2----X---2----x---3----X---3----x--------|
A|------X--------x---0----X--------x--------|
E|-3--------3-----------------4-------------|

Parte 4 de 4

   C/G      C7/G     F7M/A    Fm   C9(11+)
E|--------------------------0-1----2--------|
B|-1----X---1----X---1----1---1----3--------|
G|-0----X---3----X---2--2-----1----0--------|
D|-2----X---2----X---3--------3----2--------|
A|------X--------X---0-------------3--------|
E|-3--------3-------------------------------|

   C/G  C/Bb  F7M/A  Fm/Ab
Jamais
   C/G  C7/G  F7M/A  Fm/Ab
Jamais
   C/G  C7/G  F7M/A  Fm
Jamais                  me abandone
   C9(11+)
Jamais
Outros vídeos desta música
    2.396.252 exibições
    • Simplificar cifra
      • ½ Tom
      • A
      • Bb
      • B
      • C
      • Db
      • D
      • Eb
      • E
      • F
      • F#
      • G
      • Ab
    • Adicionar à lista

    Afinação da cifra

    Afinador online

      0 comentários

      Ver todos os comentários

      Entre para o Cifra Club PRO

      Tenha acesso a benefícios exclusivos no App e no Site

      • Chega de anúncios

      • Badges exclusivas

      • Mais recursos no app do Afinador

      • Atendimento Prioritário

      • Aumente seu limite de lista

      • Ajude a produzir mais conteúdo

      Capítulos
      • Início
      • Tocando a música
      • Acordes da Introdução
      • Tocando Introdução
      • Ensinando Introdução
      • Acordes da Primeira Parte
      • Tocando Primeira e Segunda Parte
      • Ensinando Primeira Parte
      • Ensinando Segunda Parte
      • Acordes das Repetições
      • Tocando Repetições
      • Ensinando Repetições
      • Encerramento

      Cifra Club Pro

      Aproveite o Cifra Club com benefícios exclusivos e sem anúncios
      Cifra Club Pro
      Aproveite o Cifra Club com benefícios exclusivos e sem anúncios
      Ops (: Contenido disponible sólo en portugués.
      OK