Enviar cifraEntrar

Meu Erro

Os Paralamas do Sucesso

Cifra: Principal
exibições 816.060
Tom: C
Intro: F5(9)  Fm

Introdução - Parte 1 de 2


   F5(9)
E|-3--------1--------0---------------------|
B|----1--------1--------1-----3-----1------|
G|-------0--------0--------0-----0-----0---|
D|-3--------3--------3---------------------|
A|-----------------------------------------|
E|-----------------------------------------|


Introdução - Parte 2 de 2


            Fm
E|------------------------------------------|
B|-0--1--3--3---1---0---1---3---1-----------|
G|----------1---1---1---1---1---1-----------|
D|----------3---3---3---3---3---3-----------|
A|------------------------------------------|
E|------------------------------------------|



Riff Introdução: 
C/G  C7/G  F7M/A  Fm/Ab (2x)
C  C/Bb  F7M/A  Fm/Ab
C/G  C/Bb  F7M/A  Fm/Ab

Riff Introdução - Parte 1 de 2


   C/G      C7/G     F7M/A    Fm/Ab
E|------------------------------------------|
B|-1----X---1----x---1----X---1----x--------|
G|-0----X---3----x---2----X---1----x--------|
D|-2----X---2----x---3----X---3----x--------|
A|------X--------x---0----X--------x--------|
E|-3--------3-----------------4-------------|


Riff Introdução - Parte 1 de 2 (variação)


   C        C/Bb     F7M/A  Fm/Ab
E|------------------------------------------|
B|-1----X---1----X---1----X---1----x--------|
G|-0----X---0----X---2----X---1----x--------|
D|-2----X---2----X---3----X---3----x--------|
A|-3----X---1----X---0----X--------x--------|
E|----------------------------4-------------|


Riff Introdução - Parte 1 de 2 (variação 2)


   C/G      C/Bb     F7M/A  Fm/Ab
E|------------------------------------------|
B|-1---1-X-0-1----1---1----X---1----x-------|
G|-0---0-X-0-0----0---2----X---1----x-------|
D|-2---2-X-0-2----2---3----X---3----x-------|
A|-------X---1-1--1-1-0----X--------x-------|
E|-3-3------------------------4-------------|


Riff Introdução - Parte 2 de 2


   C/G      C/Bb     F7M/A    Fm/Ab
E|-------------------0------0-1-------1-----|
B|-1----X---1----X---1----1---1-----1-------|
G|-0----X---0----X---2--2-----1---1---------|
D|-2----X---2----X---3--------3-------------|
A|------X---1----X---0----------------------|
E|-3--------------------------4-------------|


Primeira Parte:
C                          Em7
  Eu quis dizer você não quis escutar
  F9                   Fm9
Agora não peça não me faça promessas
         C                   Em7
Eu não quero dizer nem quero acreditar
         F9                Fm9
Que vai ser diferente que tudo mudou

Primeira Parte - Parte 1 de 4


   C                 Em7
E|------------------------------------------|
B|-1----X---1----x---3----X---3----x--------|
G|-0----X---0----x---0----X---0----x--------|
D|-2----X---2----x---2----X---2----x--------|
A|-3----X---3----x--------X--------x--------|
E|-------------------0--------0-------------|


Primeira Parte - Parte 2 de 4


   F9                Fm9
E|-3--------3--------3--------3-------------|
B|-1----X---1----x---1----X---1----x--------|
G|-0----X---0----x---1----X---1----x--------|
D|-3----X---3----x---3----X---3----x--------|
A|------X--------x--------X--------x--------|
E|------------------------------------------|


Primeira Parte - Parte 3 de 4


   C                 Em7
E|------------------------------------------|
B|-1----X---1----x---3----X---3----x--------|
G|-0----X---0----x---0----X---0----x--------|
D|-2----X---2----x---2----X---2----x--------|
A|-3----X---3----x--------X--------x--------|
E|-------------------0--------0-------------|


Primeira Parte - Parte 4 de 4


   F9                Fm9
E|-3--------3--------3--------3-------------|
B|-1----X---1----x---1----X---1----x--------|
G|-0----X---0----x---1----X---1----x--------|
D|-3----X---3----x---3----X---3----x--------|
A|------X--------x--------X--------x--------|
E|------------------------------------------|


Segunda Parte:
      Em7                 Am7        Am7/G
Você diz não saber o que houve de errado
        F#m7(5-)             Fm7M
E o meu erro foi crer que estar ao seu lado

      C/G  C7/G
Bastaria

         F7M/A     Fm/Ab          C/G  C7/G
Ah! Meu Deus, era tudo que eu queria
    F7M/A              Fm
Eu dizia seu nome, não    me abandone jamais

Segunda Parte - Parte 1 de 4


   Em7               Am7      Am7/G
E|-3--------3-------------------------------|
B|-3----X---3----x---1----X---1----x--------|
G|-0----X---0----x---0----X---0----x--------|
D|------X--------x---2----X---2----x--------|
A|------X--------x---0----X--------x--------|
E|-0--------0-----------------3-------------|


Segunda Parte - Parte 2 de 4


   F#m7(5-)          Fm(7M)
E|------------------------------------------|
B|-2----X---2----x---1----X---1----x--------|
G|-3----X---3----x---1----X---1----x--------|
D|-3----X---3----x---2----X---2----x--------|
A|------X--------x--------X--------x--------|
E|-2--------2--------1--------1-------------|


Segunda Parte Parte 3 de 4 (variação)


   C/G      C7/G     F7M/A    Fm/Bb
E|------------------------------------------|
B|-1----X---1----x---1----X---1----x--------|
G|-0----X---3----x---2----X---1----x--------|
D|-2----X---2----x---3----X---3----x--------|
A|------X--------x---0----X--------x--------|
E|-3--------3-----------------4-------------|


Riff Introdução - Parte 2 de 2


   C/G      C7/G     F7M/A    Fm/Ab
E|-------------------0------0-1-------1-----|
B|-1----X---1----X---1----1---1-----1-------|
G|-0----X---3----X---2--2-----1---1---------|
D|-2----X---2----X---3--------3-------------|
A|------X--------X---0----------------------|
E|-3--------3-----------------4-------------|



Riff Introdução: 
C  C/Bb  F7M/A  Fm/Ab
G/C  C7/G  F7M/A  Fm/Ab

Riff Introdução - Parte 1 de 2


   C        C Bb     F7M/A    Fm/Ab
E|------------------------------------------|
B|-1----X---1----X---1----X---1----x--------|
G|-0----X---3----X---2----X---1----x--------|
D|-2----X---2----X---3----X---3----x--------|
A|-3----X---3----X---0----X--------x--------|
E|----------------------------4-------------|


Riff Introdução - Parte 2 de 2


   C/G      C7/G     F7M/A    Fm/Ab
E|-------------------0------0-1-------1-----|
B|-1----X---1----X---1----1---1-----1-------|
G|-0----X---3----X---2--2-----1---1---------|
D|-2----X---2----X---3--------3-------------|
A|------X--------X---0----------------------|
E|-3--------3-----------------4-------------|


(Primeira Parte com variação na letra)

C                       Em7
  Mesmo querendo eu não vou me enganar
       F9                      Fm9
Eu conheço os seus passos, eu vejo os seus erros
        C            Em7
Não há nada de novo,     ainda somos iguais
   F9                  Fm9
Então não me chame não olhe pra trás

Segunda Parte:
      Em7                 Am7(9)     Am7(9)/G
Você diz não saber o que houve de errado
        F#m7(5-)             Fm7M
E o meu erro foi crer que estar ao seu lado
         C/G  C7/G
Bastaria
         F7M/A     Fm/Ab          C/G  C7/G
Ah! Meu Deus, era tudo que eu queria
    F7M/A              Fm
Eu dizia seu nome, não    me abandone jamais

Segunda Parte - Parte 1 de 4


   Em7               Am7(9)   Am7(9)/G
E|------------------------------------------|
B|-8----X---8----x---13---X---12---x--------|
G|-7----X---7----x---12---X---12---x--------|
D|-5----X---5----x---10---X--------x--------|
A|------X--------x---12---X---10---x--------|
E|-0--------0-------------------------------|


Segunda Parte - Parte 2 de 4


   F#m7(5-)          Fm(7M)
E|------------------------------------------|
B|-10---X---10---x---9----X---9----x---9----|
G|-9----X---9----x---9----X---9----x---9----|
D|-10---X---10---x---10---X---10---x---10---|
A|-9----X---9----x---8----X---8----x---8----|
E|------------------------------------------|


Parte Final:  C  C/Bb  F7M/A  Fm/Ab

   G/C  C/Bb  F7M/A  Fm/Ab
jamais
   G/C  C7/G  F7M/A  Fm/Ab
Jamais

G/C  C7/G  F7M/A  Fm/Ab
                        Me abandone
   C9(11+)
Jamais

Parte Final

Parte Final - Parte 4 de 4

   C/G      C7/G     F7M/A    Fm   C9(11+)
E|--------------------------0-1----2--------|
B|-1----X---1----X---1----1---1----3--------|
G|-0----X---3----X---2--2-----1----0--------|
D|-2----X---2----X---3--------3----2--------|
A|------X--------X---0-------------3--------|
E|-3--------3-------------------------------|
  • 1
  • 2
  • 3
  • 4
  • 5
  • 6
  • 7
  • 8
  • 9
  • 10
  • 11
  • 12
    Acordes para:
      Composição: Herbert ViannaColaboração e revisão:

      0 comentários

        mostrar mais comentários

        Conseguiu tocar?

        27tocaram6ainda não

        Grave um vídeo tocando Meu Erro e mande pra gente!

        00:00 / 00:00
        outros vídeos desta música
        repetirqualidadeautomática
        • automática
        Outro vídeos desta música
          Capítulos
          • Início
          • Tocando a música
          • Acordes da Introdução
          • Tocando Introdução
          • Ensinando Introdução
          • Acordes da Primeira Parte
          • Tocando Primeira e Segunda Parte
          • Ensinando Primeira Parte
          • Ensinando Segunda Parte
          • Acordes das Repetições
          • Tocando Repetições
          • Ensinando Repetições
          • Encerramento
          00:00 / 00:00
          automática
          • automática
          fecharplay/pause subir/descer velocidade
            acordes
            fechar
            OK
            Feedback