Enviar cifraEntrar

Ska

Os Paralamas do Sucesso

Cifra: Principal
exibições 119.092
Tom: C
[Intro]  Am  Dm  B7  E7


E|-----------------------------------------------------|
B|-----------------------------------------------------|
G|-----------------------------------------------------|
D|-----------------------------------------------------|
A|---------5-7-7-5-------------------------------------|

E|--5 9--------------9--5------------------------------|


E|-----------------------------------------------------|
B|-----------------------------------------------------|
G|--------5--7--9--7--5--7--5--5-----------------------|
D|-----7---------------------------7---7---------------|
A|-----------------------------------------------------|
E|-----------------------------------------------------|



   Am
A vida não é filme
      Dm
Você não entendeu
     B7
Ninguém foi ao seu quarto
            E7
Quando escureceu
   Am                       Dm
Saber o que passava no meu coração
       B7           E7
Se o que você fazia era certo ou não
       Am                        Dm
E a mocinha se perdeu olhando o sol se pôr
  B7                         E7
Que final romântico, morrer de amor
       Am                Dm
Relembrando da janela tudo que viveu
    B7                         E7
Fingindo não ver os erros que cometeu
  A/C#   Am/C        Bm
E assim,      tanto faz
        E7/9-
Se o herói não aparecer
  A/C#  Am/C      Bm   E7/9-
E aí,       nada mais

   Am
A vida não é filme
      Dm
Você não entendeu
    B7
De todos os seus sonhos
     E7
Não restou nenhum
     Am
Ninguém foi ao seu quarto
              Dm
Quando escureceu
B7
E só você não viu
         E7
Não era filme algum
       Am                        Dm
E a mocinha se perdeu olhando o sol se pôr
  B7                     E7
Que final romântico, morrer de amor
       Am                Dm
Relembrando da janela tudo que viveu
    B7                         E7
Fingindo não ver os erros que cometeu
     A/C#  Am/C       Bm
E assim,       tanto faz
        E7/9-
Se o herói não aparecer
  A/C#  Am/C      Bm   E7/9-
E aí,       nada mais
  • 1
  • 2
  • 3
  • 4
  • 5
  • 6
  • 7
  • 8
  • 9
  • 10
  • 11
  • 12
    Acordes para:
      Composição: Herbert ViannaColaboração e revisão:

      0 comentários

        mostrar mais comentários

        Conseguiu tocar?

        17tocaram0ainda não

        Grave um vídeo tocando Ska e mande pra gente!

        00:00 / 00:00
        outros vídeos desta música
        repetirqualidadeautomática
        • automática
        Outro vídeos desta música
          00:00 / 00:00
          automática
          • automática
          Acordes para:violão e guitarra
          dificuldadeexibiçõescontribuições
          1 versão de Tab de baixoexibiçõescontribuições
          fecharplay/pause subir/descer velocidade
            Acordes para:violão e guitarra
            acordes
            fechar
            OK