Cifra Club

Flip Flop Rock

OutKast

Cifra: Principal (violão e guitarra)
tom: G
e|--------7-2------------7-2--------------------2(3)-2(3)-2(3)-2(3-2)---|
B|---0--3-----------0--3------------0--7-3------------------------------|
G|-------------------------------0--------------------------------------|
D|----------------------------------------------------------------------|
A|----------------------------------------------------------------------|
E|----------------------------------------------------------------------|
OU:
e|---------7--------------7--------------------------------------------|
B|---0------7-------0-------7--------0--7------7(8)-7(8)-7(8)-7(8-7)---|
G|------7--------------7-----------0-----7-----------------------------|
D|---------------------------------------------------------------------|
A|---------------------------------------------------------------------|
E|---------------------------------------------------------------------|

Toca assim a música inteira.
00:00 / 00:00
Outros vídeos desta música
Repetir
Outros vídeos desta música
Composição de Antwan Patton / David Sheats / Michael Render / Shawn Carter
Colaboração e revisão:
  • Renan Marques
1.175 exibições
    • ½ Tom
    • A
    • Bb
    • B
    • C
    • Db
    • D
    • Eb
    • E
    • F
    • F#
    • G
    • Ab
  • Adicionar à lista

    0 comentários

    Ver todos os comentários

    Conseguiu tocar?

    0 Tocaram 0 Ainda não

    Grave um vídeo tocando Flip Flop Rock e nos envie!

    00:00 / 00:00

    Cifra Club Pro

    Aproveite o Cifra Club com benefícios exclusivos e sem anúncios
    Cifra Club Pro
    Aproveite o Cifra Club com benefícios exclusivos e sem anúncios
    OK