Cifra Club

Ele Vem

Ouvir e Crer

Cifra: Principal
exibições 173.513
Tom: G
[Intro]  G

Quando você chama ele vem

Ele nunca jamais te deixará
                                    G  G
Ao abrir seu coração e dizer Jesus vem

Logo ele diz
           G G  G
Estou aqui
              Em
E       Ele        vem
     C
Saltando sobre os montes
     G            D 
Ele vem
               D D4 D
Pra me encontrar
           Em
Pra me abraçar
           C
Pra me dizer
             G
Que eu sou dEle
          D D4 D
E Ele é meu


E|----------------------------------------------|
A|----------------------------------------------|
D|----------------------------------------------|
G|----------------------------------------------|
B|---12--12--12--12--12--12--12--12-------------|
E|-12--14--15--14--12--14--15--14---------------|

  

E|----------------------------------------------|
A|----------------------------------------------|
D|----------------------------------------------|
G|----------------------------------------------|
B|-13--13--13--13--13--13--13--13---------------|
E|---14--15--14--12--14--15--14-----------------|


E|----------------------------------------------|
A|----------------------------------------------|
D|----------------------------------------------|
G|----------------------------------------------|
B|-15--15--15--15--15--15--15--15--15-----------|
E|---17--19--17--15--17--19--17--15--19---------|
Acordes para:

    0 comentários

      mostrar mais comentários

      Conseguiu tocar?

      11tocaram0ainda não

      Grave um vídeo tocando Ele Vem e mande pra gente!

      00:00 / 00:00
      outros vídeos desta música
      repetirqualidadeautomática
      Outro vídeos desta música
        00:00 / 00:00
        automática
        OK