Cifra Club

Fenix

Ozielzinho

Cifra: Principal (violão e guitarra)
tom: A
E|---------------------------------------12----------|-------------------------------------||
B|------------------------------------------15-13-12-|--13-12----------12-13-15-15b--------||
G|*--14----------14-17-16-14-16----13-16-------------|--------14-13-14--------------------*||
D|*-----------14----------------14-------------------|------------------------------------*||
A|---------15----------------------------------------|-------------------------------------||
E|------17-------------------------------------------|-------------------------------------||

E|--12-9---------9-12-9-13-10----------10-13-10-|--15-10----------10-15-10-12-8---------8-12-8-|
B|-------10---10--------------------------------|--------12----12------------------------------|
G|----------9-----------------14-10-14----------|-----------12------------------12-9-12--------|
D|----------------------------------------------|----------------------------------------------|
A|----------------------------------------------|----------------------------------------------|
E|----------------------------------------------|----------------------------------------------|

E|--13-8----------8-13-8-10-7---0-13-10----0-|--16-13----0-19-16----0-22b-------|--------------------|
B|-------10----10-------------9---------12---|--------15---------18-------------|-----------------5--|
G|----------10-------------------------------|----------------------------------|--------------7-----|
D|-------------------------------------------|----------------------------------|--------------------|
A|-------------------------------------------|----------------------------------|--------------------|
E|-------------------------------------------|----------------------------------|--------------------|

E|---------------------|----------------------|--------------------|----------------------||
B|---6------------6----|--5--------5----------|--------------------|------------------5---||
G|*--------------------|----------------7--5--|--7-----------------|---------------7-----*||
D|*--------------------|----------------------|---------------5----|--5------------------*||
A|---------------------|----------------------|--------------------|----------------------||
E|---------------------|----------------------|--------------------|----------------------||

E|-------------------|--------------------|---------------------|----------------------|
B|-------------------|--------------------|---------------5--6--|----------------------|
G|--7----------------|--------------7--5--|--7------------------|--5-------------------|
D|-------------------|--------------------|---------------------|-----------7----5--3--|
A|-------------------|--------------------|---------------------|----------------------|
E|-------------------|--------------------|---------------------|----------------------|

E|-------------------|------------------|--22-19-18-21-18-17-20-17-16-19-16-15-18-15-14-17-|
B|-------------------|------------------|--------------------------------------------------|
G|-------------------|------------------|--------------------------------------------------|
D|--5----------------|------------------|--------------------------------------------------|
A|-------------------|------------------|--------------------------------------------------|
E|-------------------|------------------|--------------------------------------------------|

E|--14-13-16-13-12-15-12-15-15b-------|--15-12-11-14-11-10-13-10-9-12-9-8-11-8-7-10-|
B|------------------------------------|---------------------------------------------|
G|------------------------------------|---------------------------------------------|
D|------------------------------------|---------------------------------------------|
A|------------------------------------|---------------------------------------------|
E|------------------------------------|---------------------------------------------|

E|--7-6-9-6-5-8-5-8-8b-------|------------------|--17----------------|-------5--7--8--7--8--12--|
B|---------------------------|------------------|--20b---------------|----5---------------------|
G|---------------------------|------------------|--------------------|--------------------------|
D|---------------------------|------------------|--------------------|--------------------------|
A|---------------------------|------------------|--------------------|--------------------------|
E|---------------------------|------------------|--------------------|--------------------------|

E|--11----------------|------------------|-----------------------14-18-14-------------------|
B|--------------------|------------------|--------------------16----------16----------------|
G|--------------------|------------------|-----------------15----------------15----------15-|
D|--------------------|------------------|-----------13-16----------------------16-13-16----|
A|--------------------|------------------|--------13----------------------------------------|
E|--------------------|------------------|--11-14-------------------------------------------|

E|-----14-18-14-18-14----------------------13-14-18-|--17----------------|------------------|
B|--16----------------16----------------16----------|--------------------|------------------|
G|-----------------------15----------15-------------|--------------------|------------------|
D|--------------------------16-13-16----------------|--------------------|------------------|
A|--------------------------------------------------|--------------------|------------------|
E|--------------------------------------------------|--------------------|------------------|

E|---------------------------------------12----------|-------------------------------------||
B|------------------------------------------15-13-12-|--13-12----------12-13-15-15b--------||
G|*--14----------14-17-16-14-16----13-16-------------|--------14-13-14--------------------*||
D|*-----------14----------------14-------------------|------------------------------------*||
A|---------15----------------------------------------|-------------------------------------||
E|------17-------------------------------------------|-------------------------------------||

E|---12-9---------9-12-9-13-10----------10-13-10-|--15-10----------10-15-10-12-8---------8-12-8-|
B|--------10---10--------------------------------|--------12----12------------------------------|
G|*----------9-----------------14-10-14----------|-----------12------------------12-9-12--------|
D|*----------------------------------------------|----------------------------------------------|
A|-----------------------------------------------|----------------------------------------------|
E|-----------------------------------------------|----------------------------------------------|

E|--13-8----------8-13-8-11-7---------7-11-7-|--17-16-13-----------------------------------------||
B|-------10----10----------------------------|-----------17-15-13--------------------------------||
G|----------10----------------11-8-11--------|--------------------16-14-13----------------------*||
D|-------------------------------------------|-----------------------------15-14-12-------------*||
A|-------------------------------------------|--------------------------------------15-14-12-11--||
E|-------------------------------------------|---------------------------------------------------||

E|--13-8----------8-13-8-10-7---0-13-10----0-|--16-13----0-19-16----0-20----19----|--17~-||
B|-------10----10-------------9---------12---|--------15---------18---------------|------||
G|----------10-------------------------------|------------------------------------|------||
D|-------------------------------------------|------------------------------------|------||
A|-------------------------------------------|------------------------------------|------||
E|-------------------------------------------|------------------------------------|------||

Compositor não encontrado.
Colaboração e revisão:
  • Alberth
  • André Moreira
5.910 exibições
    • ½ Tom
    • A
    • Bb
    • B
    • C
    • Db
    • D
    • Eb
    • E
    • F
    • F#
    • G
    • Ab
  • Adicionar à lista

    0 comentários

    Ver todos os comentários

    Conseguiu tocar?

    0 Tocaram 0 Ainda não

    Grave um vídeo tocando Fenix e nos envie!

    00:00 / 00:00
    Outros vídeos desta música
    Repetir Qualidade Automático
    Outros vídeos desta música
    00:00 / 00:00
    Automático

    Cifra Club Pro

    Aproveite o Cifra Club com benefícios exclusivos e sem anúncios
    Cifra Club Pro
    Aproveite o Cifra Club com benefícios exclusivos e sem anúncios
    OK