Cifra Club

Top Gear

Ozielzinho

Cifra: Principal
exibições 159.686
Tom: D#
Intro:

  C5
E|--------------------11-15p11----------11-15p11-----
B|-----------------13----------13----13--------------
G|--------------12----------------12-----------------
D|--------10h13--------------------------------------
A|-----10--------------------------------------------
E|8h11-----------------------------------------------

  Eb5
E|---------------------15-18p15----------15-18p15----
B|------------------16----------16----16-------------
G|---------------15----------------15----------------
D|---------13h17-------------------------------------
A|------13-------------------------------------------
E|11h15----------------------------------------------

  Bb5
E|-------------------10-13p10----------10-13p10------
B|----------------11----------11----11---------------
G|-------------10----------------10------------------
D|--------8h12---------------------------------------
A|------8--------------------------------------------
E|-6h10----------------------------------------------

  C5
E|15p11----------11-15p11-20p15----------15-20p15----
B|------13----13----------------16----16-------------
G|---------12----------------------17----------------
D|---------------------------------------------------
A|---------------------------------------------------
E|---------------------------------------------------

  C5
E|15--11---------------------------------------------
B|--------13-----------------------------------------
G|------------12-------------------------------------
D|---------------------------------------------------
A|---------------------------------------------------
E|---------------------------------------------------

Primeira Parte - Tema Principal:
  C5                          Eb5
E|---------------------------------------------------
B|---------------------------------------------------
G|-------------8---7----------8---8------------------
D|10p8----8-10-------10-8-------8---8-8~-------------
A|-----10--------------------------------------------
E|---------------------------------------------------

  Bb5                      C5
E|---------------------------------------------------
B|--------8-9---8----------8-------------------------
G|10-7-10---------10-8-------8-7-8-------------------
D|---------------------------------10~---------------
A|---------------------------------------------------
E|---------------------------------------------------

  C5                          Eb5
E|---------------------------------------------------
B|---------------------------------------------------
G|-------------8---7----------8---8------------------
D|10p8----8-10-------10-8-------8---8-8~-------------
A|-----10--------------------------------------------
E|---------------------------------------------------

  Bb5                      C5
E|---------------------------------------------------
B|--------8-9---8----------11b13r~-------------------
G|10-7-10---------10-8-------------------------------
D|---------------------------------------------------
A|---------------------------------------------------
E|---------------------------------------------------

Segunda Parte:
  Ab5                Bb5                Ab5
E|------------------------------------------16--15---
B|----16-15-13-15-16-----18-16-15-16-18------------18
G|13~----------------15~----------------17~----------
D|---------------------------------------------------
A|---------------------------------------------------
E|---------------------------------------------------

   Bb5
E|---------------------------------------------------
B|16-15-15-15-16-18-16-15----------------------------
G|------------------------15-------------------------
D|---------------------------------------------------
A|---------------------------------------------------
E|---------------------------------------------------

Terceira Parte - Tema Principal:
  C5                          Eb5
E|---------------------------------------------------
B|------------16---15---------16----16---------------
G|17----15-17---------17-15------15----15-15~--------
D|---17----------------------------------------------
A|---------------------------------------------------
E|---------------------------------------------------

  Bb5                        C5
E|---------15-16---15--------------15h16p15----15----
B|18-15-18------------18-16--18b20----------18-------
G|---------------------------------------------------
D|---------------------------------------------------
A|---------------------------------------------------
E|---------------------------------------------------

E|---------------------------------------------------
B|18p16-----18p16------------------------------------
G|------17--------17-15------------------------------
D|---------------------------------------------------
A|---------------------------------------------------
E|---------------------------------------------------

  C5                          Eb5
E|---------------------------------------------------
B|------------16---15---------16----16---------------
G|17----15-17---------17-15------15----15-15~--------
D|---17----------------------------------------------
A|---------------------------------------------------
E|---------------------------------------------------

  Bb5                        C5
E|---------15-16---15--------18b20~~-----------------
B|18-15-18------------18-16--------------------------
G|---------------------------------------------------
D|---------------------------------------------------
A|---------------------------------------------------
E|---------------------------------------------------

Segunda Parte (Variação):
  Ab5          Bb5          Ab5
E|---------------------------------11~---------------
B|------16~----------16~-----------------------------
G|13~----------15~----------13~----------------------
D|---------------------------------------------------
A|---------------------------------------------------
E|---------------------------------------------------

Quarta Parte:
  Bb5
E|13p10----10-13p10----10-13p10----10-15p10-13p10----
B|------11----------11----------11-------------------
G|---------------------------------------------------
D|---------------------------------------------------
A|---------------------------------------------------
E|---------------------------------------------------

E|15p11----11-15p11----11-15p11----11-16p11-15p11----
B|------13----------13----------13-------------------
G|---------------------------------------------------
D|---------------------------------------------------
A|---------------------------------------------------
E|---------------------------------------------------

E|15p11----11-15p11----11-15p11----11-16p11-15p11----
B|------11----------11----------11-------------------
G|---------------------------------------------------
D|---------------------------------------------------
A|---------------------------------------------------
E|---------------------------------------------------

E|13p10----10-13p10----10-13p10----10-15p10-13p10----
B|------11----------11----------11-------------------
G|---------------------------------------------------
D|---------------------------------------------------
A|---------------------------------------------------
E|---------------------------------------------------

E|15p11----------------------------------------------
B|------13~------------------------------------------
G|---------------------------------------------------
D|---------------------------------------------------
A|---------------------------------------------------
E|---------------------------------------------------

Final:
E|---------------------------------------------------
B|-13--11-8--11-13--13b15-13-11--13~-----------------
G|---------------------------------------------------
D|---------------------------------------------------
A|---------------------------------------------------
E|---------------------------------------------------

E|---------------------------------------------------
B|-11b13-11-8-11-8-----------------------------------
G|-----------------10-10b12~-10~-8---5---------------
D|-----------------------------------5---------------
A|-----------------------------------3----------------
E|---------------------------------------------------
Acordes para:
    Colaboração e revisão:
    • Caroline
    • jean teixeira

    0 comentários

      mostrar mais comentários

      Conseguiu tocar?

      28tocaram4ainda não

      Grave um vídeo tocando Top Gear e mande pra gente!

      00:00 / 00:00
      outros vídeos desta música
      repetirqualidadeautomática
      Outro vídeos desta música
        00:00 / 00:00
        automática
        Capítulos
        • Início
        • Arpejos da Introdução
        • Arpejos do Final
        • Acordes da Base
        • Tocando a música
        • Ensinando Introdução
        • Ensinando Primeira Parte - Tema Principal
        • Ensinando Segunda Parte
        • Ensinando Terceira Parte
        • Ensinando Segunda Parte (Variação)
        • Ensinando Quarta Parte
        • Ensinando Final
        • Encerramento
        OK