Cifra Club

I Don't Know

Ozzy Osbourne

Cifra: Principal (violão e guitarra)
tom: A
Gtr I, V - 'Randy Rhoads dist electric'
Gtr II, III, IV (E A D G B E) - 'Randy Rhoads clean electric'

Intro
  Q=135
 4/4
  Gtr I
              PM--------------------|      PM--------------------|
   H       Q  S S S S S S S S S S S S   Q  S S S S S S S S S S S S
|--------|----------------------------|----------------------------|
|--------|----------------------------|----------------------------|
|--------|-2--------------------------|-4--------------------------|
|--------|-2--------------------------|-4--------------------------|
|--------|-0--0-0-0-0-0-0-0-0-0-0-0-0-|----0-0-0-0-0-0-0-0-0-0-0-0-|
|-17\----|----------------------------|----------------------------|
         |-Rhy Fig 1
         |-Rhy Fig 1A

     PM------------|                ~
  Q  S S S S S S S S  Q     H    Q  Q
|-------------------------|-3----------|
|-------------------------|-3----3-----|
|-5-----------------------|-0----2-----|
|-5-----------------------|-0----0-----|
|----0-0-0-0-0-0-0-0------|-x----0-----|
|--------------------12\--|-3-------3--|
            end Rhy Fig 1-|
                        end Rhy Fig 1A-|

Rhy Fig 1



  S S S S S S S S S S S S S S S S
|---------------------------------||
|-1p0h1p0h1p0---------------------||
|-------------2p0h2p0-------------||
|---------------------2p0h2p0-----||
|-----------------------------3p0-||
|---------------------------------||


   Verse
    $
||--
||o- Rhy Fig 1A
||--
||--
||o-
||--


     PM--------------------|      PM--------------------|
  Q  S S S S S S S S S S S S   Q  S S S S S S S S S S S S
|----------------------------|-----------------------------|
|----------------------------|-----------------------------|
|-2--------------------------|-4---------------------------|
|-2--------------------------|-4---------------------------|
|-0--0-0-0-0-0-0-0-0-0-0-0-0-|----0-0-0-0-0-0-0-0-0-0-0-0--|
|----------------------------|-----------------------------|


     PM--------------------|
  Q  S S S S S S S S S S S S     H      H
|----------------------------|----------------|
|----------------------------|----------------|
|-5--------------------------|-<12>----<7>----|
|-5--------------------------|-<12>----<7>----|
|----0-0-0-0-0-0-0-0-0-0-0-0-|----------------|
|----------------------------|----------------|

Rhy Fig 1A

Rhy Fig 1


                Chorus
            ~                   PM--------|
  H    Q.   E      Q  H.        E E E E E E S   +E.
|-3-----------||---3--3-------|-----------3----------||
|-3----3------||o--3--3-------|-------6-------------o||
|-0----2------||---0--0-------|---5-----5------------||
|-0----0------||---0--0-------|-3---3----------------||
|-x----0------||o--x--x-------|---------------------o||
|-3---------2-||---3--3-------|-------------5b6r(5)--||




                                                                         To Coda
             PM----------------------------|
  Q  H.      S S S S S S S S S S S S S S S S   Q  Q  Q.   E   E E Q  Q  Q
|-3--3-----|---------------------3-3---------|----3---------|---------------||
|-3--3-----|-------------6-6---------6-6-----|----6---------|---------------||
|-0--0-----|-----5-5---------5-5---------5-0-|-5------------|-7-7-7--5------||
|-0--0-----|-3-3-----3-3---------------------|-3-----5------|-7-7-7--5--5---||
|-x--x-----|---------------------------------|-------7----5-|-5-5-5--3--5---||
|-3--3-----|---------------------------------|--------------|--------3--3---||


 Interlude
  1. Rhy Fig 1A -> Rhy Fig 1 ->


   T      T      T      T      T      T      T      T
   |----6-----|  |----6-----|  |----6-----|  |----6-----|
   S S S  S S S  S S S  S S S  S S S  S S S  S S S  S S S
|----------------------------------------------------------||
|---------------------------------------------------------o||
|-12p5p0-12p5p0-12p5p0-12p5p0-12p4p0-12p4p0-12p2p0-12p2p0--||
|----------------------------------------------------------||
|---------------------------------------------------------o||
|----------------------------------------------------------||


    2.
    PM|                                 PM|
    E E E E +Q   E E   +H     Q  Q      E E E E +Q   E E
||-----------------3-|-(3)-----------||----------------3-|
||o-----8-7-(7)--0-3-|-(3)----------o||-----8-7-(7)--0-3-|
||------7-7-(7)--0-0-|-(0)-----------||-----7-7-(7)--0-0-|
||------7-7-(7)--0-0-|-(0)-----------||-----7-7-(7)--0-0-|
||o-0-0------------x-|-(x)----3-----o||-0-0------------x-|
||-----------------3-|-(3)-------3---||----------------3-|


  H    Q  E E   H    H      Q.  E Q.  E
|-3-----------|-----------|-------------|
|-3-----------|-----------|-------------|
|-0-----------|-2---------|-------------|
|-0-----------|-2---------|-------3-----|
|-x----3------|-0---------|-------3-----|
|-3-------3p0-|------3----|-2p==0-1p==0-|


 Bridge
  half time Q=68
  D5/A
  Gtr I
   W               +W
   |                |
   /                /

  Gtr IV
   W                H       Q      Q
|----------------|---------------<12>--|
|-<7>------------|---------<7>---------|
|-<7>------------|-<5>-----------------|
|-<7>------------|---------------------|
|----------------|---------------------|
|----------------|---------------------|
|
| Gtr III
|  W               +H.             Q
|----------------|-----------------2---|
|----------------|---------------------|
|--2-------------|-(2)-----------------|
|----------------|---------------------|
|----------------|---------------------|
|----------------|---------------------|
|
| Gtr II
|  Q   q  E E Q     Q   Q   E  E   q
|----------------|-----------------2---|
|------3--3s5s3--|--3----------3-------|
|----------------|------2---2----------|
|--0-------------|---------------------|
|----------------|---------------------|
|----------------|---------------------|


   +W                   +W
    |                    |
    /                    /

    W                    W
|---------------------|----------------------------------|
|-<12>----------------|----------------------------------|
|-<12>----------------|-<5>------------------------------|
|-<12>----------------|----------------------------------|
|---------------------|----------------------------------|
|---------------------|----------------------------------|
|
|                        |--3---| |--3--|  |--3---|
|   Q.     E  Q    q     E  E   E E E   E  E  E   E Q
|---3------7p=5----3--|--5-------------------------------|
|------------------3--|-----8p==6-6----------------------|
|---------------------|-------------7p==5--5h=7p==5------|
|---------------------|-----------------------------7\---|
|---------------------|----------------------------------|
|---------------------|----------------------------------|
|
|   E  E Q   +E  E q     E    Q       E   +E    E   E  E
|---3--------------3--|----------------------------------|
|------2---------3----|---------------3---(3)---1---0----|
|--------0---(0)------|-------2------------------------2-|
|---------------------|----------------------------------|
|---2-----------------|----------------------------------|
|---------------------|--1-------------------------------|

   W                 W
|-14--------------|-12-------------|
|--x--------------|--x-------------|
|-11--------------|--9-------------|
|-----------------|----------------|
|-----------------|----------------|
|-----------------|----------------|
|
|  Q   E E E E Q     H      Q   q
|----------2-3-5--|--3------3---5--|
|--------3--------|----------------|
|------2----------|----------------|
|--0--------------|----------------|
|-----------------|----------------|
|-----------------|----------------|
|
|  Q E E   E E Q    +Q   Q  E E q
|-----------------|-------------2--|
|------2---3s5s3--|-(3)-------3----|
|-----------------|------2--2------|
|--0-0------------|----------------|
|-----------------|----------------|
|-----------------|----------------|

   W                    H.                          Q
|-10-----------------|-17--------------------------15----|
|--x-----------------|--x---------------------------x----|
|--7-----------------|-14--------------------------12----|
|--------------------|-----------------------------------|
|--------------------|-----------------------------------|
|--------------------|-----------------------------------|
|
|                       |--3---| |--3--|  |--3---|
|  Q.     E  Q    q     E  E   E E E   E  E  E   E  Q
|---------7p=5----3--|--5--------------------------------|
|--3--------------3--|-----8p==6-6-----------------------|
|--------------------|-------------7p==5--5h=7p==5-------|
|--------------------|------------------------------7\---|
|--------------------|-----------------------------------|
|--------------------|-----------------------------------|
|
|  E  E Q   +E  E q     E    Q       E   +E    E    E  E
|--3--------------3--|-----------------------------------|
|-----2---------3----|---------------3---(3)---1----0----|
|-------0---(0)------|-------2-------------------------2-|
|--------------------|-----------------------------------|
|--2-----------------|-----------------------------------|
|--------------------|--1--------------------------------|

   W                         W                      W
|-14----------------------|-12-------------------|-10------------------|
|--x----------------------|--x-------------------|--x------------------|
|-11----------------------|--9-------------------|--7------------------|
|-------------------------|----------------------|---------------------|
|-------------------------|----------------------|---------------------|
|-------------------------|----------------------|---------------------|
|
|                            |--3--|
|  H      E   E +S  S S S    E E   E H        Q     Q.     E  H
|-------------------------|----------------------|--7------7-----------|
|---------5p==3-(3)-------|----------------------|--5------------------|
|-------------------4p2---|--4p2-----------------|---------------------|
|--4----------------------|--------4p2-----------|---------------------|
|-------------------------|----------------------|---------------------|
|-------------------------|----------------------|---------------------|
|
|  Q  E E S S E  Q           E   E   Q  +E  E q     E  E Q   +E  E q
|-------------------------|--3----------------3--|--3--------------3---|
|-----3---3s5-------------|------2----------3----|-----2---------3-----|
|-------2-----------------|----------0--(0)------|-------0---(0)-------|
|--0----------------------|----------------------|---------------------|
|-------------------------|--3-------------------|--2------------------|
|-------------------------|----------------------|---------------------|

   H.                        Q       W                  W
|-17------------------------15----|-14---------------|-12--------------|
|--x-------------------------x----|--x---------------|--x--------------|
|-14------------------------12----|-11---------------|--9--------------|
|---------------------------------|------------------|-----------------|
|---------------------------------|------------------|-----------------|
|---------------------------------|------------------|-----------------|
|
|  |-3--| |--3--|  |--3---|
|  E  E E E E   E  E  E   E  Q       Q  Q   +E E q      H     E Q   E
|--5------------------------------|------------3-5---|--3--------------|
|-----8p6-6-----------------------|-----3---(3)------|--------8s5------|
|-----------7p==5--5h=7p==5-------|------------------|-----------------|
|----------------------------7\---|--0---------------|-----------------|
|---------------------------------|------------------|-----------------|
|---------------------------------|------------------|-----------------|
|
|  Q.         E   +E    E    E  E    Q  E E  E E E E    Q  Q  E E q
|---------------------------------|------------------|--3---------3----|
|-------------3---(3)---1----0----|-----3----3s5s7---|----------3------|
|-------------------------------2-|-------2----------|-----0-----------|
|---------------------------------|--0---------------|--------0--------|
|---------------------------------|------------------|--3--------------|
|--1------------------------------|------------------|-----------------|

   W                   H               Q         Q       W
|-10----------------|-17--------------15s=======14----|-14---------------|
|--x----------------|--x---------------x--------------|--x---------------|
|--7----------------|-14--------------12s=======11----|-11---------------|
|-------------------|---------------------------------|------------------|
|-------------------|---------------------------------|------------------|
|-------------------|---------------------------------|------------------|
|
|                      |-3--| |--3--|  |--3---|
|  H.            q     E  E E E E   E  E  E   E  Q       H      E E q
|-------------------|--5------------------------------|---------2-3-5----|
|--3-------------3--|-----8p6-6-----------------------|------------------|
|-------------------|-----------7p==5--5h=7p==5-------|------------------|
|-------------------|----------------------------7\---|--4---------------|
|-------------------|---------------------------------|------------------|
|-------------------|---------------------------------|------------------|
|
|  E  E Q  +E  E q     Q.         E   +E    E    E  E    Q  E E E E E E
|--3-------------3--|---------------------------------|------------------|
|-----2--------3----|-------------3---(3)---1----0----|-----3---3s5s3----|
|-------0--(0)------|-------------------------------2-|-------2----------|
|-------------------|---------------------------------|--0---------------|
|--2----------------|---------------------------------|------------------|
|-------------------|--1------------------------------|------------------|

   W                 W                  H.                        Q
|-12--------------|-10---------------|-17------------------------15----|
|--x--------------|--x---------------|--x-------------------------x----|
|--9--------------|--7---------------|-14------------------------12----|
|-----------------|------------------|---------------------------------|
|-----------------|------------------|---------------------------------|
|-----------------|------------------|---------------------------------|
|
|                                       |-3--| |--3--|  |--3---|
|  H      E E q      Q   q   q    q     E  E E E E   E  E  E   E  Q
|-------------5---|----------5----3--|--5------------------------------|
|---------8s5-----|------3-----------|-----8p6-6-----------------------|
|-----------------|------------------|-----------7p==5--5h=7p==5-------|
|-----------------|------------------|----------------------------7\---|
|-----------------|------------------|---------------------------------|
|-----------------|------------------|---------------------------------|
|
|  Q  E E Q   E E    E E Q  +E  E q     Q.         E   +E    E    Q
|--0------0-------|--3------------3--|---------------------------------|
|-------3-----3p0-|----2--------3----|-------------3---(3)---1----0----|
|-----0-----------|------0--(0)------|---------------------------------|
|-----------------|------------------|---------------------------------|
|--3--------------|--2---------------|---------------------------------|
|-----------------|------------------|--1------------------------------|

   W                     W                               W
|-14------------------|-12----------------------------|-10----------------|
|--x------------------|--x----------------------------|--x----------------|
|-11------------------|--9----------------------------|--7----------------|
|---------------------|-------------------------------|-------------------|
|---------------------|-------------------------------|-------------------|
|---------------------|-------------------------------|-------------------|
|
|                        |--3--| |--3--|  |--3---|
|  H      a E E a E E    E E   E E E   E  E  E   E Q     W
|-----------2---------|-------------------------------|-------------------|
|---------3h5p3-------|----3p==1----------------------|-------------------|
|---------------2s4s2-|----------0h2p==0--0h=2p==0----|-------------------|
|--4------------------|----------------------------2--|-------------------|
|---------------------|-------------------------------|-------------------|
|---------------------|-------------------------------|-------------------|
|
|  Q  E E   E E   E E    E   E   E   E   +E    E   q     E E Q  +E  E q
|---------------------|--------------5---(5)----------|--3------------3---|
|-----3-----3s5s==7s8-|------8-----------------8------|----2--------3-----|
|-------2-------------|----------5-----------------5--|------0--(0)-------|
|--0------------------|-------------------------------|-------------------|
|---------------------|--7----------------------------|--2----------------|
|---------------------|-------------------------------|-------------------|

   H.                  Q      W                 W
|-17------------------15---|-14--------------|-12----------------||
|--x-------------------x---|--x--------------|--x----------------||
|-14------------------12---|-11--------------|--9----------------||
|--------------------------|-----------------|-------------------||
|--------------------------|-----------------|-------------------||
|--------------------------|-----------------|-------------------||
|
|  |-3--| |-3-| |-3-|
|  E  E E E E E E E E  Q      H      E E q      Q.    E Q   q
|--5-----------------------|---------2-3-5---|-12----10-8--------||
|-----8p6-6----------------|-----------------|-------------10----||
|-----------7p5-5h7p5------|-----------------|-------------------||
|----------------------7\--|--0--------------|-------------------||
|--------------------------|-----------------|-------------------||
|--------------------------|-----------------|-------------------||
|
|  Q      Q     Q      Q      Q  E E E E E E    Q.    E Q   E  E
|--3-----------------------|-----------------|-------------------||
|--------------------------|-----3---3s5s7---|--8-----6-5--------||
|---------2----------------|-------2---------|--------------5\---||
|---------------3----------|--0--------------|-------------------||
|----------------------3---|-----------------|-------------------||
|--------------------------|-----------------|-------------------||


  original tempo Q=135
  Gtr I
                               PM|
  H    Q.   E   E E Q  Q  Q    E E E E +Q   E E
|-------------|--------------|------------------|
|-6-----------|--------------|-----8-7-(7)------|
|-5-----------|-7-7-7--5-----|-----7-7-(7)--0-5-|
|-3----5------|-7-7-7--5--5--|-----7-7-(7)--0-5-|
|------7----5-|-5-5-5--3--5--|-0-0--------------|
|-------------|--------3--3--|------------------|


                       PM|
  +Q   E E +E  E E E   E E E E +Q   E E   +E  +Q    E +Q   S   +S  E
|--------------------|------------------|-----------------------------|
|--------------------|-----8-7-(7)------|-----------------------------|
|-(5)--5-7-(7)-------|-----7-7-(7)--0-5-|-(5)-(5)\--0-(0)----------2--|
|-(5)--5-7-(7)-------|-----7-7-(7)--0-5-|-(5)-(5)\--0-(0)-------------|
|--------------5-6-7-|-0-0--------------|------------------3b4-(4)----|
|--------------------|------------------|-----------------------------|


  PM|                                     PM|
  E E E E +Q   E E   +Q   E E +E  E E E   E E E E +Q   E E   +Q   H.
|------------------|--------------------|----------------3-|-(3)--------|
|-----8-7-(7)------|--------------------|-----8-7-(7)--0-3-|-(3)--------|
|-----7-7-(7)--0-5-|-(5)--5-7-(7)-------|-----7-7-(7)--0-0-|-(0)--------|
|-----7-7-(7)--0-5-|-(5)--5-7-(7)-------|-----7-7-(7)--0-0-|-(0)--x\----|
|-0-0--------------|--------------5-6-7-|-0-0------------x-|-(x)--------|
|------------------|--------------------|----------------3-|-(3)--------|


 Guitar Solo
  Gtr V
          ~~~~~
   Q      H.           S  S  S  S     S  S  S  S  S  S  S  S  S  S  S  S
|-------------------|-15----------------15-------------------------------|
|-18b20--18b20------|----18-15-------15----18-15----15-------------------|
|-------------------|----------17b19-------------18----18-15-17-15-------|
|-------------------|----------------------------------------------17-15-|
|-------------------|----------------------------------------------------|
|-------------------|----------------------------------------------------|
|
| Gtr I
|                      PM             PM---|            PM---|
|  Q      H.           E     E        E     E     E     E     E     E
|--3------3---------|--------1--------------------1-----------------1----|
|--3------3---------|--------1--------------------1-----------------1----|
|--0------0---------|--------2--------------------2-----------------2----|
|--0------0---------|--------3--------------------3-----------------3----|
|--x------x---------|----------------------------------------------------|
|--3------3---------|--1--------------0-----1-----------0-----1----------|
|-Rhy Fig 3                                                end Rhy Fig 3-|

with Rhy Fig 3
         ~~                                                  ~~~
                               |------5-------|
   E     Q     E      H       +S   S  S    S  S  S  S  S  S  Q.      E
|-------------17b18==18r===|=(17)-17p15h==17p15h17p15h17p15S13-------------|
|--------------------------|----------------------------------------13b15==|
|-17b18-15-----------------|-----------------------------------------------|
|--------------------------|-----------------------------------------------|
|--------------------------|-----------------------------------------------|
|--------------------------|-----------------------------------------------|

         T     T     T     T     T     T     T         T     T
         |------6-------|  |------6-------|  |--------6---------|
   +Q    S  S  S  S  S  S  S  S  S  S  S  S  S      S  S  S  S  S
|-----------------------------------------------------------------|
|-(15)--16p13-16p13-16p13-16p13-16p13-16p13-16b19=p13-16p13-16p13-|
|-----------------------------------------------------------------|
|-----------------------------------------------------------------|
|-----------------------------------------------------------------|
|-----------------------------------------------------------------|


                                                             \5________________
   T     T     T     T         T     T     T     T                      ~~~
   |------6-------|  |--------6---------|  |--3--|
   S  S  S  S  S  S  S      S  S  S  S  S  S  S  S  E  Q     H         +H
|----------------------------------------------------------|------------------|
|-16p13-16p13-16p13-16b20=p13-16p13-16p13-16p13-16p13r-----|------------------|
|------------------------------------------------------3---|-3tr0------(3)----|
|----------------------------------------------------------|------------------|
|----------------------------------------------------------|------------------|
|----------------------------------------------------------|------------------|


   /
              ~~~~       PM-------------------|
  +H          Q.    E    S  S  S  S  S   S  S  S S  S  S  S  S  S  S  S
|---------------------|-------------------------------------------------|
|---------------------|----------------------------------------------18-|
|-(3)-----------------|----------------------------15-15-17-17-19-19----|
|---------------------|--------------------15---------------------------|
|-----------/15p====0-|----------15-17--15----17------------------------|
|---------------------|-15-18-18----------------------------------------|


                     ~~~~~~~
   S  S  S  S  S  S  E  +E   S  S  S  S  S  S
|----------18-21p20p18-(18)----------18-------|
|-18-20-20------------------20-18-20----20-18-|
|---------------------------------------------|
|---------------------------------------------|
|---------------------------------------------|
|---------------------------------------------|

          ~~~~~~                                      ~~~~~    PM|
                                |------3------|
   Q      H        E  E        +Q     Q       Q       Q.       S S
|---------------------------|--------------------------------------|
|-20b23--20pb23----0--------|--------------------------------------|
|--------------------19b22==|=(22)---19b22---19b22---19b22-----0-0-|
|---------------------------|--------------------------------------|
|---------------------------|--------------------------------------|
|---------------------------|--------------------------------------|


   PM-------------------------------------------
   S  S  S  S  S   S  S  S  S S  S S  S S  S S
|----------------------------------------------|
|-11-10-------11--10-------10-9------10-9------|
|-------12-10--------12-10------11-9------11-9-|
|----------------------------------------------|
|----------------------------------------------|
|----------------------------------------------|

 --------------------------------|
  S S  S S S S S S S S S S S S S S
|----------------------------------|
|-9-8------8-7-----7-6-----6-5-----|
|-----10-8-----9-7-----8-6-----7-5-|
|----------------------------------|
|----------------------------------|
|----------------------------------|

  E   S S S S S S S S S S S E.
|-------3----------------------|
|-----3---6p3---3--------------|
|-5b7---------6---6p5p3---5-3/-|
|-----------------------5------|
|------------------------------|
|------------------------------|


                                                ~~~~~~~~
   S     S  S  S  S  S  S  S  +S   S      +S   +S   +Q
|-------15------------------------------------------------||
|----------18-15----15------------17b18==(18)r(17)-(17)---||
|-17b19----------18----17-15-(15)-------------------------||
|---------------------------------------------------------||
|---------------------------------------------------------||
|---------------------------------------------------------||


 Interlude
  Gtr I
  PM|
  E E E E +Q   E E   +Q   E S S S S S S S S E
|------------------|--------------------------|
|-----8-7-(7)------|--------1p0-1p0-----------|
|-----7-7-(7)--0-5-|-(5)------------2p0-------|
|-----7-7-(7)--0-5-|-(5)----------------2p0---|
|-0-0--------------|------------------------3-|
|------------------|--------------------------|


               PM
  Q  E E +E  E E E   +E  E   S S S S S S S S S S E
|------------------|-----------5-------------------|
|----8-7-(7)-7-----|---------5---8p5-6p5---5-------|

|----7-7-(7)-7---0-|-(0)-7b9-------------8---8p7p5-|
|----7-7-(7)-7---0-|-(0)---------------------------|
|-0------------0---|-------------------------------|
|------------------|-------------------------------|


  PM|                                           ~~~~~~~~
  E E E E +E  E E E   +E  E  E  E  S      +S   +E   +Q
|-------------------|----------17------------------------|
|-----8-7-(7)-7-----|-------------20b22==(22)r(20)-(20)--|
|-----7-7-(7)-7-0-5-|-(5)-6s18---------------------------|
|-----7-7-(7)-7-0-5-|-(5)--------------------------------|
|-0-0---------------|------------------------------------|
|-------------------|------------------------------------|


  PM|
  E E E E +E  E E E   Q   H.
|-------------------|-----------||
|-----8-7-(7)-7-----|-----------||
|-----7-7-(7)-7-0-0-|-0---------||
|-----7-7-(7)-7-0-0-|-0---------||
|-0-0---------------|----15\----||
|-------------------|-----------||


 Breakdown
 Rhy Fig 1 A

     PM--------------------|      PM--------------------|
  Q  S S S S S S S S S S S S   Q  S S S S S S S S S S S S
|----------------------------|-----------------------------|
|----------------------------|-----------------------------|
|-2--------------------------|-4---------------------------|
|-2--------------------------|-4---------------------------|
|-0--0-0-0-0-0-0-0-0-0-0-0-0-|----0-0-0-0-0-0-0-0-0-0-0-0--|
|----------------------------|-----------------------------|


                                                                       D.S. al Coda
     PM--------------|
  Q  S S S S S S S S e  S  S    S  S  S  S  S  S  S  S  S  S  S  S  S  S  E
|----------------------20p17-|-20p17-----------------------------------------||
|----------------------------|-------20p17-20p17-----------------------------||
|-5--------------------------|-------------------19p17-19p17-----------------||
|-5--------------------------|-------------------------------19p17-----------||
|----0-0-0-0-0-0-0-0-0-------|-------------------------------------19p17-----||
|----------------------------|-------------------------------------------19\-||


  &
   H     H
|-------------*|
|-------------*|
|-14\---------*|
|-14\---------*|
|-12\---------*|
|-------------*|
Composição de Bob Daisley / Ozzy Osbourne / Randy Rhoads
18.598 exibições
    • ½ Tom
    • A
    • Bb
    • B
    • C
    • Db
    • D
    • Eb
    • E
    • F
    • F#
    • G
    • Ab
  • Adicionar à lista

    0 comentários

    Ver todos os comentários

    Conseguiu tocar?

    0 Tocaram 0 Ainda não

    Grave um vídeo tocando I Don't Know e nos envie!

    00:00 / 00:00
    Outros vídeos desta música
    Repetir Qualidade Automático
    Outros vídeos desta música
    00:00 / 00:00
    Automático

    Cifra Club Pro

    Aproveite o Cifra Club com benefícios exclusivos e sem anúncios
    Cifra Club Pro
    Aproveite o Cifra Club com benefícios exclusivos e sem anúncios
    OK