Cifra Club

Lightning Strikes

Ozzy Osbourne

Cifra: Principal (violão e guitarra)
tom: F#
Guitar 1
                                                                               
D#||--------------------|--------------------------|--------------------------|
A#||--------------------|--------------------------|--------------------------|
F#||--------------------|--------------------------|---------------------2----|
C#||--------------------|--------------------------|---------------------2----|
G#||--------------------|--------2--------4--------|--5--------4---------0----|
D#||----------14/-------|--2--2-----2--2-----2--2--|-----2--2-----2--0-2------|


                                                      
--------------------------|--------------------------|
--------------------------|---------------------5~---|
--------------------------|---------------------4~---|
--------------------------|--------------------------|
--------2--------5--------|--4--------2--------------|
--2--2-----2--2-----2--2--|-----2--2-----2--0-0------|


                                                      
--------------------------|--------------------------|
--------------------------|--------------------------|
--------------------------|---------------------2----|
--------------------------|---------------------2----|
--------2--------4--------|--5--------4---------0----|
--2--2-----2--2-----2--2--|-----2--2-----2--0-2------|


                                                           
--------------------------|-------------------------------|
--------------------------|-------------------------------|
--------------------------|--4r--2-4p2---2----------------|
--------------------------|------------4---4--2-----------|
--------2--------5--------|---------------------4-0-4p0---|
--2--2-----2--2-----2--0--|-----------------------------0-|


                                                        
|---------------------------|--------------------------|
|---------------------------|--------------------------|
|*--------------------------|---------------------2----|
|*--------------------------|---------------------2----|
|---------2--------4--------|--5--------4---------0----|
|---2--2-----2--2-----2--2--|-----2--2-----2--0-2------|


                                                      
--------------------------|--------------------------|
--------------------------|---------------------5~---|
--------------------------|---------------------4~---|
--------------------------|--------------------------|
--------2--------5--------|--4--------2--------------|
--2--2-----2--2-----2--2--|-----2--2-----2--0-0------|


                                                      
--------------------------|--------------------------|
--------------------------|--------------------------|
--------------------------|---------------------2----|
--------------------------|---------------------2----|
--------2--------4--------|--5--------4---------0----|
--2--2-----2--2-----2--2--|-----2--2-----2--0-2------|


                                                              
--------------------------|----------------------------------|
--------------------------|----------------------------------|
--------------------------|--------------------2-----x-4p2---|
--------------------------|--------2-----2-3-4---3h4-------4-|
--------2--------5--------|--2h3h4---3h4---------------------|
--2--2-----2--2-----2--0--|----------------------------------|


                                                                               
-------------------------|--------------------------|-------------------------|
-------------------------|--------------------------|--2----------------------|
--0----------------------|--------------------------|--2----------------------|
--0----------------------|--------------------------|--2----------------------|
--0----2--------4--------|--5--------4--------2-----|--0----4--------5--------|
----------3--3-----3--3--|-----3--3-----3--3-----0--|----------5--5-----5--5--|


                                                       
---------------------------|--------------------------|
---------------------------|--------------------------|
---------------------2-----|--------------------------|
---------------------2--4--|--------------------------|
--7--------7/9-0--0-----4--|--------2--------4--------|
-----5--5------------------|--2--2-----2--2-----2--2--|


                                                                               
--------------------------|--------------------------|------------------------|
--------------------------|--------------------------|------------------------|
---------------------2----|--------------------------|-------------------2----|
---------------------2----|--------------------------|--------------4----2----|
--5--------4---------0----|--------2--------5--------|--4p0-12/-----4----0----|
-----2--2-----2--0-2------|--2--2-----2--2-----2--2--|--------------2---------|


                                                              
-------------------|---------------------|-------------------|
-------------------|---------------------|-------------------|
-------------------|---------------2-----|-------------------|
--2----------------|----------2----2-----|--4----------------|
--2----------------|----------2----0-----|--4----------------|
--0----------------|----------0-------0--|--2----------------|


                                                               
--------------------|-------------------|---------------------|
--------------------|-------------------|---------------------|
---------------2----|-------------------|---------------2-----|
----------4----2----|--2----------------|----------2----2-----|
----------4----0----|--2----------------|----------2----0-----|
----------2---------|--0----------------|----------0-------0--|


                                                               
-------------------|--------------------|---------------------|
-------------------|--------------------|--0-------------0----|
-------------------|---------------2----|--0------2------0----|
--4----------------|----------4----2----|--0------0------0----|
--4----------------|----------4----0----|--x------x------x----|
--2----------------|----------2---------|--3------3------3----|


                                                                     
----------------------|----------------------|----------------------|
----------------------|--2--------------2----|----------------------|
------------4----7----|--2------4----4--2----|------------4----7----|
------------5----9----|--2------2----2--2----|----2~------4----7----|
----5~------5----9----|--0------0----0--0----|------------2----5----|
---------3--3----7----|----------------------|---------0-------5----|


                                                                             
------------------------|-------------------------|-------0--------5--------|
------------------------|-------------------------|----------3--------3-----|
-----9--9/-7--9----9~---|-----9--9/-7--9----9/-8--|-------------2--------2--|
-----9--9/-7--9---------|-----9--9/-7--9----9/-8--|--0----------------------|
-----7--7/-5--7---------|-----7--7/-5--7----7/-6--|-------------------------|
--0---------------------|--0----------------------|-------------------------|


                                                                             
----0-----5--0-----0--0--|------------------------|-------------------------|
-------3-----------------|------------------------|-------------------------|
----------------2--------|-----9--9/-7--9----9~---|-----9--9/-7--9----9/-8--|
-------------------------|-----9--9/-7--9---------|-----9--9/-7--9----9/-8--|
-------------------------|-----7--7/-5--7---------|-----7--7/-5--7----7/-6--|
-------------------------|--0---------------------|--0----------------------|


                                                                               
-------0-----5--0--------|-------------------------|--------------------------|
----------3--------3-----|-------------------------|--------------------------|
----------------------2--|-------------------------|--------------------------|
--0----------------------|----9--9--9--11--9--9/---|--------------------------|
-------------------------|----9--9--9--9---7--7/---|--------2--------4--------|
-------------------------|----7--7--7--7---7--7/---|--2--2-----2--2-----2--2--|


                                                      
--------------------------|--------------------------|
--------------------------|--------------------------|
---------------------2----|--------------------------|
---------------------2----|--------------------------|
--5--------4---------0----|--------2--------5--------|
-----2--2-----2--0-2------|--2--2-----2--2-----2--2--|


                                                            
-----------------------------||-----------0-0--------------|
--5p2---2--------------------||--2--2-----2-2-2--2--x--2-2-|
------4---5-4-2---2--4b-----*||--2--2--4--2-2-4--4--x--2-2-|
----------------4-----------*||--2--2--2--2-2-2--2--x--2-2-|
-----------------------------||--0--0--0--0-0-0--0-----0-0-|
-----------------------------||----------------------------|


                                                        
-------------------------|-----------------------------|
--2--2--x----------2-----|--4--4--x------5--5--x-x-----|
--2--2--x--4----2--2--2--|--4--4--x--4-4-4--4--x-x-4-4-|
--2--2--x--2----2--2--2--|--4--4--x--4-4-4--4--x-x-4-4-|
--0--0-----0----0--------|--2--2-----2-2-2--2------2-2-|
-------------------------|-----------------------------|


                                                        
--------------------------|-----------0-0--------------|
--------------------------|--2--2-----2-2-2--2--x--2-2-|
--4--4--4--4--4--4--4--4--|--2--2--2--2-2-4--4--x--2-2-|
--4--4--4--4--4--4--4--4--|--2--2--4--2-2-2--2--x--2-2-|
--2--2--2--2--2--2--2--2--|--0--0--0--0-0-0--0-----0-0-|
--------------------------|----------------------------|


                                                                               
-------------------------|--------------------------|-------------------------|
--2--2--x----------2-----|--------------------------|-------------------------|
--2--2--x--4----2--2--2--|--4--4--4--4--4--4--4--4--|--4--4--4--4--4--4--x----|
--2--2--x--2----2--2--2--|--4--4--4--4--4--4--4--4--|--4--4--4--4--4--4--x----|
--0--0-----0----0--------|--2--2--2--2--2--2--2--2--|--2--2--2--2--2--2--x----|
-------------------------|--------------------------|-------------------------|


                               
----10------10--10--10--10-10-|
----13b-----13b-13b-13b-------|
------------------------------|
------------------------------|
------------------------------|
------------------------------|


                                                                               
--10-10-10-10-10----10-10-------10-10-10---10-10-|----------------------------|
--13b13r13-13-13/12-12-12-12/10-10-10-10p8-8--8--|--7r------------------------|
-------------------------------------------------|-------7--5h7p5-4--5--4-----|
-------------------------------------------------|-------------------------5--|
-------------------------------------------------|----------------------------|
-------------------------------------------------|----------------------------|


                                                             
-----------------------|--15r-------14h15p14----14-------10-|
-----------------------|---------------------15----15-10----|
--------5--7~-------x--|------------------------------------|
--5/-7--------------x--|------------------------------------|
-----------------------|------------------------------------|
-----------------------|------------------------------------|


                                                   
--------------------------------------------------|
--10----10----------------------------------------|
-----13----12-11h12p11----11----------------------|
-----------------------12----12----12-------------|
--------------------------------12----12-10-12-10-|
--------------------------------------------------|


                                             
--------------------------------------------|
--------------------------------------------|
--------------------------------------------|
---------------------------12------12-10----|
----7------10-9----12-10-9----12-9-------12-|
--8---10-8------10--------------------------|


                                                                              
-----------------------------------------10-------|--15b-----------14p12-----|
-----------------------10-------13-10-12----13-10-|----------------------15b-|
--11-11-------12-11-------12-11-------------------|--------------------------|
--------12-10-------12----------------------------|--------------------------|
--------------------------------------------------|--------------------------|
--------------------------------------------------|--------------------------|


                                              
------12-----------12-----------12-----------|
---------15p12--------15p12--------15p12-----|
---------------14b----------14b----------14b-|
---------------------------------------------|
---------------------------------------------|
---------------------------------------------|


                                                                           
--12----------------12----------------12----------------12----------------|
-----15p12-15p12-------15p12-15p12-------15p12-15p12-------15p12-15p12----|
-----------------14----------------14----------------14----------------14-|
--------------------------------------------------------------------------|
--------------------------------------------------------------------------|
--------------------------------------------------------------------------|


                                                            
--17p12----12-------12-------------------------------------|
--------15----15p12----12----12-------12-------------------|
--------------------------14----14p13----12----12----------|
--------------------------------------------14----14-14b---|
-----------------------------------------------------------|
-----------------------------------------------------------|


                                                                      
-----x-19r------18--17--15--14--12h14-|--14r---12--15--15p12~-----10-|
---0----------------------------------|------------------------------|
--------------------------------------|------------------------------|
--------------------------------------|------------------------------|
--------------------------------------|------------------------------|
--------------------------------------|------------------------------|


                                                                      
--10-10-10-12-12-12-14-14-14-12-12-14-14-14-15-15-15-14-14--15-15-15-|
---------------------------------------------------------------------|
---------------------------------------------------------------------|
---------------------------------------------------------------------|
---------------------------------------------------------------------|
---------------------------------------------------------------------|


                                                         
--17-17-17-15-15-17-17-17-19-19-17-17-17-19-19-21-21r---|
--------------------------------------------------------|
--------------------------------------------------------|
--------------------------------------------------------|
--------------------------------------------------------|
--------------------------------------------------------|


                                                      
--------------------------|--------------------------|
--------------------------|--------------------------|
--------------------------|---------------------2----|
--------------------------|---------------------2----|
--------2--------4--------|--5--------4---------0----|
--2--2-----2--2-----2--2--|-----2--2-----2--0-2------|


                                                                           
--------------------------|--------------------|--------------------------|
--------------------------|--------------------|--------------------------|
--------------------------|---------------x----|--------------------------|
--------------------------|---------------x----|--------------------------|
--------2--------5--------|--4~----------------|--------2--------4--------|
--2--2-----2--2-----2--2--|--------------------|--2--2-----2--2-----2--2--|


                                                                               
--------------------------|--------------------------|------------------------|
--------------------------|--------------------------|------------------------|
---------------------2----|--------------------------|-------------------2----|
---------------------2----|--------------------------|--------------4----2----|
--5--------4---------0----|--------2--------5--------|--4p0---------4----0----|
-----2--2-----2--0-2------|--2--2-----2--2-----2--2--|------17/-----2---------|


                                                                             
------------------------|-------------------------|-------0--------5--------|
------------------------|-------------------------|----------3--------3-----|
-----9--9/-7--9----9~---|-----9--9/-7--9----9/-8--|-------------2--------2--|
-----9--9/-7--9---------|-----9--9/-7--9----9/-8--|--0----------------------|
-----7--7/-5--7---------|-----7--7/-5--7----7/-6--|-------------------------|
--0---------------------|--0----------------------|-------------------------|


                                                                             
----0-----5--0-----0--0--|------------------------|-------------------------|
-------3-----------------|------------------------|-------------------------|
----------------2--------|-----9--9/-7--9----9~---|-----9--9/-7--9----9/-8--|
-------------------------|-----9--9/-7--9---------|-----9--9/-7--9----9/-8--|
-------------------------|-----7--7/-5--7---------|-----7--7/-5--7----7/-6--|
-------------------------|--0---------------------|--0----------------------|


                                                                               
-------0-----5--0--------|-------------------------|--------------------------|
----------3--------3-----|-------------------------|--------------------------|
----------------------2--|-------------------------|--------------------------|
--0----------------------|----9--9--9--11--9--9/---|--------------------------|
-------------------------|----9--9--9--9---7--7/---|--------2--------4--------|
-------------------------|----7--7--7--7---7--7/---|--2--2-----2--2-----2--2--|


                                                      
--------------------------|--------------------------|
--------------------------|--------------------------|
---------------------2----|--------------------------|
---------------------2----|--------------------------|
--5--------4---------0----|--------2--------5--------|
-----2--2-----2--0-2------|--2--2-----2--2-----2--2--|


                                                      
--------------------------|--------------------------|
---------------------5----|--------------------------|
---------------------4----|--------------------------|
---------------------2----|--------------------------|
--4--------2---------2----|--------2--------4--------|
-----2--2-----2--0-0-0----|--2--2-----2--2-----2--2--|


                                                      
--------------------------|--------------------------|
--------------------------|--------------------------|
---------------------2----|--------------------------|
---------------------2----|--------------------------|
--5--------4---------0----|--------2--------5--------|
-----2--2-----2--0-2------|--2--2-----2--2-----2--2--|


                                                      
--------------------------|--------------------------|
---------------------5----|--------------------------|
---------------------4----|--------------------------|
---------------------2----|--------------------------|
--4--------2---------2----|--------2--------4--------|
-----2--2-----2--0-0-0----|--2--2-----2--2-----2--2--|


                                                      
--------------------------|--------------------------|
--------------------------|--------------------------|
---------------------2----|--------------------------|
---------------------2----|--------------------------|
--5--------4---------0----|--------2--------5--------|
-----2--2-----2--0-2------|--2--2-----2--2-----2--2--|


                                                      
--------------------------|--------------------------|
---------------------5----|--------------------------|
---------------------4----|--------------------------|
---------------------2----|--------------------------|
--4--------2---------2----|--------2--------4--------|
-----2--2-----2--0-0-0----|--2--2-----2--2-----2--2--|


                                                      
--------------------------|--------------------------|
--------------------------|--------------------------|
---------------------2----|--------------------------|
---------------------2----|--------------------------|
--5--------4---------0----|--------2--------5--------|
-----2--2-----2--0-2------|--2--2-----2--2-----2--2--|


                                                      
--------------------------|--------------------------|
---------------------5----|--------------------------|
---------------------4----|--------------------------|
---------------------2----|--------------------------|
--4--------2---------2----|--------2--------4--------|
-----2--2-----2--0-0-0----|--2--2-----2--2-----2--2--|


                                                      
--------------------------|--------------------------|
--------------------------|--------------------------|
---------------------2----|--------------------------|
---------------------2----|--------------------------|
--5--------4---------0----|--------2--------5--------|
-----2--2-----2--0-2------|--2--2-----2--2-----2--2--|


                                                      
--------------------------|--------------------------|
---------------------5----|--------------------------|
---------------------4----|--------------------------|
---------------------2----|--------------------------|
--4--------2---------2----|--------2--------4--------|
-----2--2-----2--0-0-0----|--2--2-----2--2-----2--2--|


                                                      
--------------------------|--------------------------|
--------------------------|--------------------------|
---------------------2----|--------------------------|
---------------------2----|--------------------------|
--5--------4---------0----|--------2--------5--------|
-----2--2-----2--0-2------|--2--2-----2--2-----2--2--|


                                               
--------------------------|------------------||
---------------------5----|------------------||
---------------------4----|------------------||
---------------------2----|------------------||
--4--------2---------2----|------------------||
-----2--2-----2--0-0-0----|------------------||
Compositor não encontrado.
Colaboração e revisão:
  • marcos rolim
1.470 exibições
    • ½ Tom
    • A
    • Bb
    • B
    • C
    • Db
    • D
    • Eb
    • E
    • F
    • F#
    • G
    • Ab
  • Adicionar à lista

    0 comentários

    Ver todos os comentários

    Conseguiu tocar?

    1 Tocaram 0 Ainda não

    Grave um vídeo tocando Lightning Strikes e nos envie!

    00:00 / 00:00
    Outros vídeos desta música
    Repetir Qualidade Automático
    Outros vídeos desta música
    00:00 / 00:00
    Automático

    Cifra Club Pro

    Aproveite o Cifra Club com benefícios exclusivos e sem anúncios
    Cifra Club Pro
    Aproveite o Cifra Club com benefícios exclusivos e sem anúncios
    OK