Notificações Amigos pendentes

      Ozzy Osbourne

      Mr. Crowley

      201.185 exibições
      Tom: A
      CONCERTADO !!!
      Bom desse jeito que agora está, deve ser mais fácil de entender !
      Antes era mais bagunçado! Tá aí galera boa musica :)
      Elerson Carlos (cifra remontada )
      Vinicius Passaro da banda DANUTS! ( upou a cifra )
      
      * = alavanca
      
      
      |---------------------------------|
      |---------------------------------|
      |---------------------------------|
      |---------------------------------|
      |---------------------------------|
      |---------------------------------|
      
      
      Intro:
      
      Repete a intro 2x
      
      |--------------------------------------------------------------------|
      |--------------------------------------------------------------------|
      |-------------------------------------7-9----------------------------|
      |------5-7--7-5-5-7-9/10---10-9-7-9-10---10-7-8-5-----7b9r7~~--------|
      |-5-7-8---8----8--------12-----------------7---8-8-7-8---------------|
      |----------5--------------8------------------------------------------|
      
      
      Riff 1
      
      Mr. Crowley, what went on in your head?
      
      |---------------------------------|
      |---------------------------------|
      |---------------------------------|
      |-7---------/3-x-3-------3--------|
      |-5-0--/5~~-/1-x-1-3-1-0-1--------|
      |----1/---------------------------|
      
      
      Oh, Mr. Crowley, did you talk to the dead?
      
      |----------------------------------------|
      |----------------------------------------|
      |----------------------------------------|
      |-7---------/3-x-3-------3---------------|
      |-5-0--/5~~-/1-x-1-3-1-0-1---------------|
      |----1/----------------------------------|
      
      
      Your life style to me seemed so tragic
      With the thrill of it all
      
      |------------------------------------------------|
      |--------------------5h6p5-6/8-7-----------------|
      |--------------------5h7p5-7/9-7-----------------|
      |-5---5-5-x---5-5-x------------------------------|
      |-3---3-3-x---3-3-x------------------------------|
      |------------------------------------------------|
      
      
      You fooled all the people with magic
      You waited on Satan's call
      
      |----------------------------------------------------------|
      |----------------------------------------------------------|
      |-5---x----------------------------------------------------|
      |-5---5-----5--------5---5---3---3-------3----2*-----------|
      |-3---3-----3----x-x-3---3---1---1-------1----0*-----------|
      |----------------------------------------------------------|
      
      
      Riff 2:
      
      Mr. Charming, did you think you were pure
      
      |---------------------------------|
      |---------------------------------|
      |---------------------------------|
      |-7---------/3-x-3-------3--------|
      |-5-0--/5~~-/1-x-1-3-1-0-1--------|
      |----1/---------------------------|
      
      
      Mr. Alarming, in nocturnal rapport
      
      |----------------------------------------|
      |----------------------------------------|
      |----------------------------------------|
      |-7---------/3-x-3-------3---------------|
      |-5-0--/5~~-/1-x-1-3-1-0-1---------------|
      |----1/----------------------------------|
      
      
      Uncovering things that were sacred
      And manifest on this Earth
      
      |--------------------------------------------------|
      |--------------------5h6p5h6p5h6p5-----------------|
      |--------------------5h7p5h7p5h7p5-----------------|
      |-5---5-5-x---5-5-x--------------------------------|
      |-3---3-3-x---3-3-x--------------------------------|
      |--------------------------------------------------|
      
      
      Conceived in the eye of a secret
      And they scattered afterbirth
      
      |----------------------------------------------------------|
      |----------------------------------------------------------|
      |-5---x----------------------------------------------------|
      |-5---5-----5--------5---5---3---3-------3----2*-----------|
      |-3---3-----3----x-x-3---3---1---1-------1----0*-----------|
      |----------------------------------------------------------|
      
      
      
      
      Solo 1:
      
      |------10----------10----------10----------10-----10-------|
      |----10--13-10---10--13-10---10--13-10---10--13-10---------|
      |-12^---------12^---------12^---------12^------------------|
      |----------------------------------------------------------|
      |----------------------------------------------------------|
      |----------------------------------------------------------|
      
      
      |-13-10---10--------------------------------------------------|
      |------13---13-10-13-10--10-----------------------------------|
      |----------------------12--12-10-12-10--10--------------------|
      |-------------------------------------12--12-10-12-10--10--10-|
      |----------------------------------------------------12--12---|
      |-------------------------------------------------------------|
      
      
      |-----------------------------------13-13-16-15-13-18-181615-20-201817-|
      |--------------------10--10-10-13-15-----------------------------------|
      |---------10-10-10-12--12----------------------------------------------|
      |-12-10-12-------------------------------------------------------------|
      |----------------------------------------------------------------------|
      |----------------------------------------------------------------------|
      
      
      |-20--20^~~~~~~~~~~----20^--^-^---^~~~~~~---20--17--20-----|
      |----------------------------------------------------------|
      |----------------------------------------------------------|
      |----------------------------------------------------------|
      |----------------------------------------------------------|
      |----------------------------------------------------------|
      
      
      |-171817-------------------181715-17-15------------------------|
      |-------201720-171817-20---------------18p17-15-17-15\13-15p13-|
      |--------------------------------------------------------------|
      |--------------------------------------------------------------|
      |--------------------------------------------------------------|
      |--------------------------------------------------------------|
      
      
      |-----------------------------------------15^---15-15-15-15-|
      |----13-----------------------------------------------------|
      |-14----15-12----12-----------------------------------------|
      |-------------15----14p12-14~~~~~~~-------------------------|
      |-----------------------------------------------------------|
      |-----------------------------------------------------------|
      
      
      |-13-12h13p12----12------------------------|
      |-------------15----15^-~~~~~~~~~~~~-------|
      |------------------------------------------|
      |------------------------------------------|
      |------------------------------------------|
      |------------------------------------------|
      
      
      |-13p10--10--10-13p10-10-10--10-13p10--10------13p10--10--10-|
      |------13--13--------------13--------13--13-10------13--13---|
      |------------------------------------------------------------|
      |------------------------------------------------------------|
      |------------------------------------------------------------|
      |------------------------------------------------------------|
      
      
      |-13p10--10--10-13p10--10-----13p10--10-----13p10--10------|
      |------13--13--------13--13-10-----13--13-10-----13--13-10-|
      |----------------------------------------------------------|
      |----------------------------------------------------------|
      |----------------------------------------------------------|
      |----------------------------------------------------------|
      
      
      |-----------------------------------------5-h6p5---5-------|
      |-13-8h10\8-5-6-5\3-4-1-/-5-6p5---5h6p5h6--------8---8--^--|
      |-------------------------------7--------------------------|
      |----------------------------------------------------------|
      |----------------------------------------------------------|
      |----------------------------------------------------------|
      
      
      |--------------------------------------------------------------|
      |-6-------------6p5--------------------------------------------|
      |---7---7~~-7p5-----7p5----------------------------------------|
      |-----------------------7p6p5---5h6p5---5-------5p3-------3----|
      |-----------------------------8-------8---8-5\3-----5p3-5---5--|
      |--------------------------------------------------------------|
      
      
      |----------------------------------------------------------|
      |----------------------------------------------------------|
      |----------------------------------------------------------|
      |-----------------------------------2*---------------------|
      |-7h8p7----7h8p7----7-----7--p--4---0*---------------------|
      |-----------------------------------0*--------(fim solo)---|
      
      
      Riff 3:
      
      Mr. Crowley, won't you ride my white horse
      
      |---------------------------------|
      |---------------------------------|
      |---------------------------------|
      |-7---------/3-x-3-------3--------|
      |-5-0--/5~~-/1-x-1-3-1-0-1--------|
      |----1/---------------------------|
      
      
      Mr. Crowley, it's symbolic of course
      
      |----------------------------------------|
      |----------------------------------------|
      |----------------------------------------|
      |-7---------/3-x-3-------3---------------|
      |-5-0--/5~~-/1-x-1-3-1-0-1---------------|
      |----1/----------------------------------|
      
      
      Approaching a time that is classic
      I hear maidens call
      
      
      |------------------------------------------------|
      |------------------------------------------------|
      |------------------------------------------------|
      |-5---5-5-x---5-5-x------------------------------|
      |-3---3-3-x---3-3-x------------------------------|
      |------------------------------------------------|
      
      
      |--------------------------------------------|
      |-----------------------------------8-10-11--|
      |----------------------------7h9h10----------|
      |-----------7---------7-8-10-----------------|
      |----7-8-10---10-8-10------------------------|
      |-10-----------------------------------------|
      
      
      Approaching a time that is drastic
      Standing with their backs to the wall
      
      |----------------------------------------------------------|
      |----------------------------------------------------------|
      |-5---x----------------------------------------------------|
      |-5---5-----5--------5---5---3---3-------3----2*-----------|
      |-3---3-----3----x-x-3---3---1---1-------1----0*-----------|
      |----------------------------------------------------------|
      
      
      
      Pré Solo(preparação para o solo):
      
      |-----------------------5-3-|--------------------6-5-------|
      |-3-------5-6-5---------6-5-|----------5---------8-6-------|
      |-2-----7-------7-5-7-------|-5----5-7---7-5---------------|
      |-0---7-------------8-------|-5--5-----------5-7-----------|
      |---------------------------|------------------------------|
      |---------------------------|------------------------------|
      
      
      |----------------------5-3--|----------5-------------------|
      |-3----5h6-8-6-5-------6-5--|-5--6--8-----8--6--5----------|
      |-3--7-----7-5-3-7----------|------------------------------|
      |----------------7--5-------|------------------------------|
      |---------------------------|------------------------------|
      |---------------------------|------------------------------|
      
      
      
      Was it polemically sent
      L wanna know what you meant
      
      
      |-----------------------5-3-|--------------------6-5-------|
      |-3-------5-6-5---------6-5-|----------5---------8-6-------|
      |-2-----7-------7-5-7-------|-5----5-7---7-5---------------|
      |-0---7-------------8-------|-5--5-----------5-7-----------|
      |---------------------------|------------------------------|
      |---------------------------|------------------------------|
      
      
      I wanna know
      I wanna know what you meant, yeah
      
      
      |----------------------5-3--|----------5-------------------|
      |-3----5h6-8-6-5-------6-5--|-5--6--8-----8--6--5----------|
      |-3--7-----7-5-3-7----------|------------------------------|
      |----------------7--5-------|------------------------------|
      |---------------------------|------------------------------|
      |---------------------------|------------------------------|
      
      
      
      
      Solo 2:
      
      
      |-17p13-------------------18p13----------------------------|
      |-------15-(repete 4 X)--------15--(repete 4x)-------------|
      |----------------------------------------------------------|
      |----------------------------------------------------------|
      |----------------------------------------------------------|
      |----------------------------------------------------------|
      
      
      |-15p12------------------17p13-----------------------------|
      |-------13-(repete 4x)---------13-(repete 4x)--------------|
      |----------------------------------------------------------|
      |----------------------------------------------------------|
      |----------------------------------------------------------|
      |----------------------------------------------------------|
      
      
      |----------------------------------------------------------|
      |-15h16p15h16-16/18\16/18-18---16---15---16----------------|
      |-15h17p15h17-17/19\17/19-19---17---15---17----------------|
      |----------------------------------------------------------|
      |----------------------------------------------------------|
      |----------------------------------------------------------|
      
      
      |-15---12---------12----9----10----12----13---12-----------|
      |-/-----/----11----/----/-----/-----/-----/----------------|
      |-/-----/-----/----/----/-----/-----/-----/----------------|
      |-/-----/-----/----/----/-----/-----/-----/----------------|
      |-------------/--------------------------------------------|
      |----------------------------------------------------------|
      
      
      |-10h12p10h12p10h12-12~~~~~~~---910910910-----------------------------|
      |----------------------------------------101110111011-----------------|
      |----------------------------------------------------910910910-676767-|
      |---------------------------------------------------------------------|
      |---------------------------------------------------------------------|
      |---------------------------------------------------------------------|
      
      
      |---------9h10-12-10-12^~~~~~-----5h6p5--5-----------------------|
      |-----9h10-----------------------------8---8-6p5-6p5-7-5---------|
      |-9h10---------------------------------------------------8p7-5---|
      |--------------------------------------------------------------8-|
      |----------------------------------------------------------------|
      |----------------------------------------------------------------|
      
      
      |--------------------------------------------56865---------|
      |-----------------------------------------568------8-------|
      |----------------------------------235-357-----------------|
      |-5---------5-7p5---------------235------------------------|
      |---8p7p5-8-------8-\--------135---------------------------|
      |-------------------------135------------------------------|
      
      
      |-5-------------5------------------------------------------|
      |---8-6p5-6p5-8---8-----6--5-----232323/353535/65656/86868/|
      |----------------------------------------------------------|
      |----------------------------------------------------------|
      |----------------------------------------------------------|
      |----------------------------------------------------------|
      
      
      |-----------------------------------------------------------|
      |/10810810/11101110111011/131113111311-15^------------------|
      |-----------------------------------------------------------|
      |-----------------------------------------------------------|
      |-----------------------------------------------------------|
      |-----------------------------------------------------------|
      
      
      |---------------------------------------171817--17-----------17---------20^-|
      |-17h18----------17-18-17-18----------18------20--201817-1820--20-18-17-----|
      |-------19~~~~---------------19~~~~~----------------------------------------|
      |---------------------------------------------------------------------------|
      |---------------------------------------------------------------------------|
      |---------------------------------------------------------------------------|
      
      
      |-18--17--2018172018152018-14-19-16\15-131814131613121512\11101411-9--|
      |---------------------------------------------------------------------|
      |---------------------------------------------------------------------|
      |---------------------------------------------------------------------|
      |---------------------------------------------------------------------|
      |---------------------------------------------------------------------|
      
      
      |-13-10\5h6p5---5------------------------------------------|
      |-------------8---8-6-5---5--------------------------------|
      |-----------------------7---7-5---5------------------------|
      |-------------------------------8---8-7-8-7---------5------|
      |-------------------------------------------7/8-7h8--------|
      |----------------------------------------------------------|
      
      
      |----------------------------------------------------------|
      |----------------------------------------------------------|
      |----------------------------------------------------------|
      |-7--5------------------------------------3----------------|
      |-------8--7---5--3--------3/5------5-3-5---5-3-5----------|
      |--------------------5-3-1---------------------------------|
      
      
      |----------------------------------------------------------|
      |-------------------------------------6p5------------------|
      |---------------------------------5h7----7p5-7~~~~---------|
      |-6-3-5-3----------------3--5-5/7--------------------------|
      |---------5-3---5--3--5------------------------------------|
      |----------------------------------------------------------|
      
      
      |-5h6p5---5------------------------|
      |-------8---8-6-5-6-5--------------|
      |---------------------7-5-7-5------|
      |-----------------------------8-7--|
      |----------------------------------|
      |----------------------------------|
      
        Composição: Bob Daisley / Ozzy Osbourne / Randy RhoadsColaboração e revisão:
        • falon.aiy
        • luizão
        • Romulo

        Comentários 50

        140 .
        • romulo romulo: Em 04/08/2016 17:14

          conCertado?

        • Felipe Felipe: Em 21/04/2016 12:24

          ta errado

        • Ricardinho Ricardinho: Em 06/02/2015 12:45

          mds vlh, eu gosto muito mais do cifraclub mas até o cifras tem video aula dessa musica, assim fica foda

        • cleyton.andre.79 cleyton.andre.79: Em 06/11/2014 10:52

          coloca as notas também se poder,fazendo um favor

        • gimenez_guitar gimenez_guitar: Em 12/07/2014 12:56

          Tá péssima demais! Se for pra divulgar nome de banda, faça direito.

        • Matheus Matheus: Em 03/02/2014 19:45

          soundcloud. com/matheus-albuquerque-13/ozzy-osbourne

        • rodrigotamba rodrigotamba: Em 11/11/2013 20:18

          e ainda tá faltando coisa

          • falon.aiy falon.aiy: Em 19/11/2013 12:08

            tu ta doidão mano? q ki ta faltando?

        • rodrigotamba rodrigotamba: Em 11/11/2013 20:16

          Por favor, coloquem a outra. Essa nova tá toda zoada.

          • falon.aiy falon.aiy: Em 19/11/2013 12:12

            n sei se tu viu a antiga mais antes ela tava mais zuada .-.

        140 cancelar

        conseguiu tocar?

        • •••

        covers

        Grave um vídeo tocando Mr. Crowley e mande pra gente!

        Ex.: http://www.youtube.com/watch?v=0IvSvIwGdwk
        ver covers de outras músicas »
        0:00 / 0:00

        Capítulos

          2 versões de violão dificuldade exibições contribuição e correção
          2 versões de guitarra dificuldade exibições contribuição e correção
          2 versões de cavaco dificuldade exibições contribuição e correção
          2 versões de teclado dificuldade exibições contribuição e correção
          1 versão de baixo exibições contribuição e correção
          1 versão de bateria exibições contribuição e correção
          1 versão de partiturasformatodownloadscontribuição
          play/pausefechar subir/descer velocidade
          6ª corda E5ª corda A4ª corda D3ª corda G2ª corda B1ª corda E
            acordes
            publicidade
            fechar
            ok