Cifra Club

No More Tears

Ozzy Osbourne

Cifra: Principal (violão e guitarra)
tom: C
Eb|--------------------------------------------------------------------|
Bb|---------------------------------/10--10/12--12\--------------------|
Gb|-11b12r11--11b12r11--------------/10--10/12--12\--------------------|
Db|--------------------12-----------/10--10/12--12\--------------------|
Ab|-----------------------12-12/15-------------------------------------|
Db|--------------------------------------------------------------------|

   The light in the window is a crack in the sky
Eb|---------------------------------------------|--------------------------------------------------|
Bb|---------------------------------------------|--------------------------------------------------|
Gb|---------------------------------------------|--------------------------------------------------|
Db|---------------------------------------------|--------------------------------------------------|
Ab|---------------------------------------------|--0-3-0-3/6--5-3-5-3---3/6--5-3-5-5ha-------------|
Db|---------------------------------------------|--0-3-0-3/6--5-3-5-3---3/6--5-3-5-----------------|

   A stairway to darkness in the blink of an eye
Eb|---------------------------------------------|--------------------------------------------------|
Bb|---------------------------------------------|--------------------------------------------------|
Gb|---------------------------------------------|---10----10/13--12-10-12-10--10/13--12-10-12-10---|
Db|---------------------------------------------|12-10-12-10/13--12-10-12-10--10/13--12-10-12-10---|
Ab|---------------------------------------------|12----12----------------------------------------0-|
Db|---------------------------------------------|------------------------------------------------0-|

   A levee of tears to learn she'll never be coming back
Eb|-----------------------------------------------------|------------------------------------------|
Bb|-----------------------------------------------------|------------------------------------------|
Gb|-----------------------------------------------------|------------------------------------------|
Db|-----------------------------------------------------|------------------------------------------|
Ab|-----------------------------------------------------|--0-3-0-3/6--5-3-5-3---3/6--5-3-5-5ha-----|
Db|-----------------------------------------------------|--0-3-0-3/6--5-3-5-3---3/6--5-3-5---------|
   

   The man in the dark will bring another attack
Eb|---------------------------------------------|--------------------------------------------------|
Bb|---------------------------------------------|--------------------------------------------------|
Gb|---------------------------------------------|---10----10/13--12-10-12-10--10/13--12-10-12-10---|
Db|---------------------------------------------|12-10-12-10/13--12-10-12-10--10/13--12-10-12-10---|
Ab|---------------------------------------------|12----12----------------------------------------0-|
Db|---------------------------------------------|------------------------------------------------0-|                                       
 
     Your mamma told you that you're not supposed to talk to strangers
Eb|-------------------------------------------------------------------------|
Bb|-------------------------------------------------------------------------|
Gb|-------------------------------------------------------------------------|
Db|--------------------------------------------3----------------------------|
Ab|--0--0-0-0-0-0--2--0-0-0-0-0--3--0-0-0-0-0--1----------------------------|
Db|--0--0-0-0-0-0--2--0-0-0-0-0--3--0-0-0-0-0-------------------------------|
    |-----pm-----|   |---pm----|   |---pm----|
    
 
    Look in the mirror and tell me do you think your life's in danger, yeah
Eb|-------------------------------------------------------------------------|
Bb|-------------------------------------------------------------------------|
Gb|-------------------------------------------------------------------------|
Db|-------------------------------------------3--------------------9-10-----|
Ab|-0--0-0-0-0-0--2--0-0-0-0-0--3--0-0-0-0-0--1--------------------7-8------|
Db|-0--0-0-0-0-0--2--0-0-0-0-0--3--0-0-0-0-0--------------------------------|
      |----pm----|  |----pm----|  |----pm----|


    
No more tears (3x)
Eb|-----------------------------------------------------------|----------|
Bb|-----------------------------------------------------------|----------|
Gb|-------------------------7-----5-----4-----3---------------|----------|
Db|-----------------------------------------------------------|----------|
Ab|--------------------3/5-----5-----5-----5------5--6--5--3--|--0-------|
Db|-----------------------------------------------5--6--5--3--|--0-------|
 . . . .

[Solo]

Eb|----------------------------------------------------------------------|
Bb|----------------------------------------------------------------------|
Gb|--11~--11-12-12/14-14~-12~-11~-9~-10~--12b14r12p10-12b14r12b14--------|
Db|----------------------------------------------------------------------|
Ab|----------------------------------------------------------------------|
Db|----------------------------------------------------------------------|

Eb|--------------------------------12b13r12p10-12b13r12b13~--------------|
Bb|----------------------10-13b15----------------------------------------|
Gb|-12b14r12-11~--/11-12-------------------------------------------------|
Db|----------------------------------------------------------------------|
Ab|----------------------------------------------------------------------|
Db|----------------------------------------------------------------------|

Eb|-15b17r15p13--15b17r15b17-15b17-15b17-15b17-15b17-15b17r15-13---------|
Bb|--------------------------------------------------------------15~-----|
Gb|----------------------------------------------------------------------|
Db|----------------------------------------------------------------------|
Ab|----------------------------------------------------------------------|
Db|----------------------------------------------------------------------|

Eb|-------10-------------10----------------------------------------------|
Bb|-13b15----13-10--------------------------12----10~--------------------|
Gb|----------------12b14----12b13-12-10-----12----10~--------------------|
Db|--------------------------------------12----12-----12~----------------|
Ab|----------------------------------------------------------------------|
Db|----------------------------------------------------------------------|

Eb|----------------------------------------------------------------------|
Bb|-----------------12----------12----10~-------13b15--------------------|
Gb|-12b14r12p10-----12-12p10----12----10~--------------------------------|
Db|--------------12----------12----12-----12p10--------------------------|
Ab|----------------------------------------------------------------------|
Db|----------------------------------------------------------------------|

Eb|-10----------------10-------------------------------------------------|
Bb|----13-10-------10----10h13p10--------10-------10---------------------|
Gb|----------12b13-----------------12b13----12b13----12b13-12-10-12-10---|
Db|--------------------------------------------------------------------12|
Ab|----------------------------------------------------------------------|
Db|----------------------------------------------------------------------|

Eb|-15b17r15-13-15-13--15b17-13--15b17-17r15-13h14-----------------------|
Bb|------------------------------------------------15~-------------------|
Gb|----------------------------------------------------------------------|
Db|----------------------------------------------------------------------|
Ab|----------------------------------------------------------------------|
Db|----------------------------------------------------------------------|

Eb|-13p10-13p10-------|-----13p10-13p10--------|-------------------------|
Bb|-------------13p10-|------------------13-10-|-------------------------|
Gb|-------------------|3x----------------------|-------------------------|
Db|-------------------|------------------------|-------------------------|
Ab|-------------------|------------------------|-------------------------|
Db|-------------------|------------------------|-------------------------|
        

Eb|-15-13-15-13-------|-----17-15-17-15------|---------------------------|
Bb|-------------15-13-|-----------------18-15|---------------------------|
Gb|-------------------|4x--------------------|4x-------------------------|
Db|-------------------|----------------------|---------------------------|
Ab|-------------------|----------------------|---------------------------|
Db|-------------------|----------------------|---------------------------|

Eb|-18p13----13--18p13----13--18p13----13--18p13----13-------------------|
Bb|-------15-----------15-----------15-----------15----------------------|
Gb|----------------------------------------------------------------------|
Db|----------------------------------------------------------------------|
Ab|----------------------------------------------------------------------|
Db|----------------------------------------------------------------------|

Eb|-20p15----15--20p15----15-20p15----15-20p15----15--20b22-22\----------|
Bb|-------17-----------17----------17----------17------------------------|
Gb|----------------------------------------------------------------------|
Db|----------------------------------------------------------------------|
Ab|----------------------------------------------------------------------|
Db|----------------------------------------------------------------------|

00:00 / 00:00
Outros vídeos desta música
Repetir
Outros vídeos desta música
Composição de John Purdell / Mike Inez / Ozzy Osbourne / Randy Castillo / Zakk Wylde
Colaboração e revisão:
  • valdecir rossi
12.389 exibições
    • ½ Tom
    • A
    • Bb
    • B
    • C
    • Db
    • D
    • Eb
    • E
    • F
    • F#
    • G
    • Ab
  • Adicionar à lista

    0 comentários

    Ver todos os comentários

    Conseguiu tocar?

    1 Tocaram 1 Ainda não

    Grave um vídeo tocando No More Tears e nos envie!

    Entre para oCifra Club PRO

    Tenha acesso a benefícios exclusivos no App e no Site

    • Chega de anúncios

    • Prioridade de compra em lançamentos

    • Mais recursos no app do Afinador

    • Atendimento Prioritário

    • Descontos nos produtos Cifra Club

    • Ajude a produzir mais conteúdo

    00:00 / 00:00

    Cifra Club Pro

    Aproveite o Cifra Club com benefícios exclusivos e sem anúncios
    Cifra Club Pro
    Aproveite o Cifra Club com benefícios exclusivos e sem anúncios
    OK