Cifra Club

Aprenda

Ordinary Man

Ozzy Osbourne

Cifra: Principal (violão e guitarra)
tom: A
[Intro] E  E/D#  C#m  
        A  F#m  B
 
[Primeira Parte]

E     E/D#           C#m
I was unprepared for fame
     B                 A
Then everybody knew my name
                            F#m    B
No more lonely nights, it's all for you
E     E/D#          C#m
I have traveled many miles
          B                  A
I've seen tears and I've seen smiles
                        F#m     B
Just remember that it's all for you
 
[Pré-Refrão]

C#m             B             A
Don't forget me as the colors fade
         C#m                  B             A
When the lights go down, it's just an empty stage
 
Okay
 
[Refrão]

B
Yes, I've been a bad guy
F#m
Been higher than the blue sky
E                        Em           A
And the truth is I don't wanna die an ordinary man
B
I've made momma cry
F#m
Don't know why I'm still alive
E                         Em           A        G  A  B
Yes, the truth is I don't wanna die an ordinary man
 
[Segunda Parte]

E    E/D#            C#m
Many times I lost control
              B                A
They tried to kill my rock 'n' roll
                        F#m      B
Just remember I'm still here for you
E       E/D#          C#m
I don't wanna say goodbye
       B               A
When I do, you’ll be alright
                    F#m     B
After all, I did it all for you
  
[Pré-Refrão]

C#m             B             A
Don't forget me as the colors fade
         C#m                  B             A
When the lights go down, it's just an empty stage
 
Okay
  
[Refrão]

B
Yes, I've been a bad guy
F#m
Been higher than the blue sky
E                        Em           A
And the truth is I don't wanna die an ordinary man
B
I've made momma cry
F#m
Don't know why I'm still alive
E                         Em           A
Yes, the truth is I don't wanna die an ordinary man

[Solo]

E|--------------------------------------7------9b10r9-9b10r9-7--|
B|---3-2------3-3/5-3----3--------4-5-7-----7-------------------|
G|-------4------------4----4----4-------------------------------|
D|--------------------------------------------------------------|
A|--------------------------------------------------------------|
E|--------------------------------------------------------------|

E|--9b10r19-7----10b12r10-7--10-7-------------------------------|
B|7------------7------------------11b12r11--11-12-14-14b15-12-12|
G|--------------------------------------------------------------|
D|--------------------------------------------------------------|
A|--------------------------------------------------------------|
E|--------------------------------------------------------------|
 
E|-------------------------------------------------------17-----|
B|---15-15--14-14--15-17-15--17b19--17b19----17b19r17-15--------|
G|--------------------------------------------------------------|
D|--------------------------------------------------------------|
A|--------------------------------------------------------------|
E|--------------------------------------------------------------|

E|---15b17-15-14-12--15-14-12--14-12--------12------------------|
B|-----------------------------------15-14-----15-14-12---------|
G|--------------------------------------------------------------|
D|--------------------------------------------------------------|
A|--------------------------------------------------------------|
E|--------------------------------------------------------------|
 
E|-----------------------------------------------------10h12p10-|
B|14b15r14-12h14p12-----------------------12h15p12-10h12------12|
G|-----------------14-12-11h12p11--11-12-14---------------------|
D|-------------------------------14-----------------------------|
A|--------------------------------------------------------------|
E|--------------------------------------------------------------|
 
E|-15b17--14b16--14b16--14b16-14b16--14b16-14b16r14-12-14-14b15-|
B|--------------------------------------------------------------|
G|--------------------------------------------------------------|
D|--------------------------------------------------------------|
A|--------------------------------------------------------------|
E|--------------------------------------------------------------|
 
E|---17b19-17b19--------17b19-----------------------------------|
B|---------------19r17--------19r17--17---16h17--16-------------|
G|--------------------------------------------------------------|
D|--------------------------------------------------------------|
A|--------------------------------------------------------------|
E|--------------------------------------------------------------|
 
[Refrão]

B
Yes, I've been a bad guy
F#m
Been higher than the blue sky
E                        Em           A
And the truth is I don't wanna die an ordinary man
B
I've made momma cry
F#m
Don't know why I'm still alive
E                         Em           A
Yes, the truth is I don't wanna die an ordinary man
 
[Solo]

E|------------------------------------12-14---------------------|
B|10b-10b-12b14-12b14r12-10-14b16-14b16----14b16r14-14b16r14-12-|
G|------------------------------------------------------------11|
D|--------------------------------------------------------------|
A|--------------------------------------------------------------|
E|--------------------------------------------------------------|

E|--------------------------------------------------------------|
B|---15---17-15-17b19-17---19r17-16-17--17p16-------------------|
G|--------------------------------------------16------18b20-16--|
D|-----------------------------------------------16-----------16|
A|--------------------------------------------------------------|
E|--------------------------------------------------------------|

E|--------------------------------------------------------------|
B|--14b15-14-------15b17-15---15--------20b23--20-18-20-15b16---|
G|------------16------------16---16--16-----------------------16|
D|16-------------16---------------------------------------------|
A|--------------------------------------------------------------|
E|--------------------------------------------------------------|

E|--------------------------------------------------------------|
B|-------------17b19-17-15---17-15b17-15-12--15-12--------------|
G|---16-14------------------------------------------------------|
D|---------16---------------------------------------------------|
A|--------------------------------------------------------------|
E|--------------------------------------------------------------|
Composição de Andrew Wotman / Billy Walsh / Chad Smith / Duff McKagan
Colaboração e revisão:
  • Aranha2
  • Élison Duarte
536 exibições
    • ½ Tom
    • A
    • Bb
    • B
    • C
    • Db
    • D
    • Eb
    • E
    • F
    • F#
    • G
    • Ab
  • Adicionar à lista

    0 comentários

    Ver todos os comentários

    Conseguiu tocar?

    0 Tocaram 0 Ainda não

    Grave um vídeo tocando Ordinary Man e nos envie!

    00:00 / 00:00
    outros vídeos desta música
    repetir qualidade Automático
    Outros vídeos desta música
    00:00 / 00:00
    Automático

    Cifra Club Pro

    Aproveite o Cifra Club com benefícios exclusivos e sem anúncios
    Cifra Club Pro
    Aproveite o Cifra Club com benefícios exclusivos e sem anúncios
    OK