Cifra Club

Minha Menina

Palavrantiga

Cifra: Principal
exibições 68.684
Tom: D
Intro 2x: G  D  F#  G  D  F#/C#
      
G       D F#         G              D      F# G
Ela saiuuuuu  soziiinha, longe de caaasa está
        D F#        G
Mal se despiiiu ao mundo,
                D F#     G
vejo o medo no seu olhar.
           A               Bm               E
A minha menina, me olha nos olhos e pede socorro.
            G                   A
E Eu digo a ela, não venda teu corpo.
           Bm                  E
Segura tua alma menina, Me espera menina

Refrão:
          D               Am
Olha pra Mim, te trouxe o bem.
         Em         G
É a boa nova, vejo você sorrir
         D                 Am
Vem caminhar, ouvindo a canção
       Em             G        F#
A esperança, é doce chuva que cai
       G  D  F#   G  D F#/C#
Sobre ti

G       D F#         G              D      F# G
Ela saiuuuuu  soziiinha, longe de caaasa está
        D F#        G
Mal se despiiiu ao mundo,
                D F#     G
vejo o medo no seu olhar.
           A               Bm               E
A minha menina, Me olha nos olhos e pede socorro.
            G                   A
E Eu digo a ela, não venda teu corpo.
           Bm                  E
Segura tua alma menina, me espera menina.

Refrão:
          D               Am
Olha pra Mim, te trouxe o bem.
         Em         G
É a boa nova, vejo você sorrir
         D                 Am
Vem caminhar, ouvindo a canção
       Em             G
A esperança, é doce chuva 

Acordes do solo:D Am Em G 3x

Solo:

E|----5-----7-----------------------------------------|
B|-7-----7--------------------------------------------|
G|----------------------------------------------------|    (2x)
D|----------------------------------------------------|
A|----------------------------------------------------|
E|----------------------------------------------------|


E|----------------------------------------------------|
B|-7-8--7-10------------------------------------------|
G|----------------------------------------------------|    (2x)
D|----------------------------------------------------|
A|----------------------------------------------------|
E|----------------------------------------------------|


E|----------------------------------------------------|
B|-8-7----8---7---8-7---------------------------------|
G|------7---7---7-----7/4~~---------------------------|
D|----------------------------------------------------|
A|----------------------------------------------------|
E|----------------------------------------------------|


E|----5-----7---9--5----7-----------------------------|
B|-7-----7------------7-------------------------------|
G|----------------------------------------------------|    
D|----------------------------------------------------|
A|----------------------------------------------------|
E|----------------------------------------------------|


E|----------------------------------------------------|
B|-7-8--7-10------------------------------------------|
G|----------------------------------------------------|    (2x)
D|----------------------------------------------------|
A|----------------------------------------------------|
E|----------------------------------------------------|


E|----------------------------------------------------|
B|-8-7----8---7---8-7---------------------------------|
G|------7---7---7-----7/4~~---------------------------|
D|----------------------------------------------------|
A|----------------------------------------------------|
E|----------------------------------------------------|



Refrão e Final:
          D               Am
Olha pra Mim, te trouxe o bem.
         Em         G
É a boa nova, vejo você sorrir
         D                 Am
Vem caminhar, ouvindo a canção
       Em             G        F#
A Esperança, é doce chuva que cai
       G D F#   G D F#/C#  G D
Sobre ti
Acordes para:
    Colaboração e revisão:

    0 comentários

      mostrar mais comentários

      Conseguiu tocar?

      19tocaram1ainda não

      Grave um vídeo tocando Minha Menina e mande pra gente!

      00:00 / 00:00
      outros vídeos desta música
      repetirqualidadeautomática
      Outro vídeos desta música
        00:00 / 00:00
        automática
        OK