Cifra Club

I Write Sins Not Tragedies

Panic! At The Disco

Cifra: Principal
exibições 246.002
Tom: C
[Intro]

E|-------------------------------------------------------------------------| 
B|-------------------------------------------------------------------------| 
G|--------5-----4---------5-----4---------5-----4---------5-----4----------|      
D|-----2-----2---------2-----2---------2-----2---------2-----2-------------| 
A|--0---------------0---------------0---------------0----------------------|  
E|-------------------------------------------------------------------------|  


E|-------------------------------------------------------------------------| 
B|--------3------------------3---------------------------------------------|
G|-----5------5--4--------5------5--4--------4--5--4--5--------4--5--4--5--|                                             
D|--4------------------4------------------3-----------------3--------------|
A|-------------------------------------------------------------------------| 
E|-------------------------------------------------------------------------|


Am
Oh, well imagine, as I'm pacing the pews in a church corridor
Am6                                                   F
And I can't help but to hear, no I can't help but to hear an exchanging of words
Am
"What a beautiful wedding! What a beautiful wedding!" says a bridesmaid to a waiter
Am6                                              F
"Yes, but what a shame, what a shame, the poor groom's bride is a whore" 
 
Am                    F/C                     Dm                 G       Am
I'd chime in with a "Haven't you people ever heard of closing a goddamn door?" 
              F/C                   Dm                              G
No, it's much better to face these kinds of things with a sense of poise and rationality
Am             F/C                      Dm                 G       Am
I'd chime in, "Haven't you people ever heard of closing a goddamn door?" 
              F/C                   Dm                     G
No, it's much better to face these kinds of things with a sense of

Am                                                                               Am6
Well in fact, well I'll look at it this way, I mean technically our marriage is saved 
                                 F
Well this calls for a toast, so pour the champagne 
Am                                                                                   Am6
Oh! Well in fact, well I'll look at it this way, I mean technically our marriage is saved 
                                 F
Well this calls for a toast, so pour the champagne, pour the champagne
 
( F  G  F  D )
 
Am                    F/C                     Dm                 G       Am
I'd chime in with a "Haven't you people ever heard of closing a goddamn door?" 
              F/C                   Dm                              G
No, it's much better to face these kinds of things with a sense of poise and rationality
Am             F/C                      Dm                 G       Am
I'd chime in, "Haven't you people ever heard of closing a goddamn door?" 
              F/C                   Dm                     G
No, it's much better to face these kinds of things with a sense of

 F        G       F     D
Poise and rationality
F       G         F     D
Again

Am                    F/C                     Dm                 G       Am
I'd chime in with a "Haven't you people ever heard of closing a goddamn door?" 
              F/C                   Dm                              G
No, it's much better to face these kinds of things with a sense of poise and rationality
Am             F/C                      Dm                 G       Am
I'd chime in, "Haven't you people ever heard of closing a goddamn door?" 
              F/C                   Dm                     G
No, it's much better to face these kinds of things with a sense of

 F        G       F     D
Poise and rationality
F       G         F     D
Again
Acordes para:
    Colaboração e revisão:
    • Jose Rossini
    • Bruno Vasconcellos
    • Artur Oliveira

    0 comentários

      mostrar mais comentários

      Conseguiu tocar?

      16tocaram3ainda não

      Grave um vídeo tocando I Write Sins Not Tragedies e mande pra gente!

      00:00 / 00:00
      outros vídeos desta música
      repetirqualidadeautomática
      Outro vídeos desta música
        00:00 / 00:00
        automática
        OK