Cifra Club

Aprenda

Burnnn!

Pantera

Cifra: Principal (violão e guitarra)
Quer fazer aulas de música com a gente? Responda essas perguntas
e nos ajude nesse projeto! →
tom: G
E|---------------------------|
B|---------------------------|
G|---------------------------|  
D|---------------------------|
A|-0-0-0-0-0-0-0-0-0-0-0-0-0-|
E|---------------------------|

E|----------|
B|----------|
G|--------5-|
D|-5h7----5-|
A|----0-0---|
E|----------|

E|-------------|
B|-------------|
G|-----------5-|        
D|5-6-7------5-|
A|-----0-0-0---|
E|-------------|

E|------------------------------|
B|------------------------------|
G|----------------------------5-|
D|5-6-7-----------8-7-5-7-----5-|
A|------0-3-4-5-0---------0-0---|
E|------------------------------|

E|-------------|
B|-------------|
G|-----------5-|        
D|5-6-7------5-|
A|-----0-0-0---|
E|-------------|

E|------------------------------|
B|------------------------------|
G|----------------------------5-|
D|5-6-7-----------8-7-5-7-----5-|
A|------0-3-4-5-0---------0-0---|
E|------------------------------|

E|-------------|
B|-------------|
G|-----------5-|        
D|5-6-7------5-|
A|-----0-0-0---|
E|-------------|

E|------------------------------|
B|------------------------------|
G|----------------------------5-|
D|5-6-7-----------8-7-5-7-----5-|
A|------0-3-4-5-0---------0-0---|
E|------------------------------|

E|-------------|
B|-------------|
G|-----------5-|        
D|5-6-7------5-|
A|-----0-0-0---|
E|-------------|

E|--------------------|
B|--------------------|
G|--------------------|
D|5-6-7-----------8-7-|
A|------0-3-4-5-0-----|
E|--------------------|

E|-----------------|
B|-----------------|
G|-----------------|    
D|-----------------|
A|-0-0-0-0-0-0-0-0-|
E|-----------------|

E|---------------------------------------|
B|---------------------------------------|
G|---------------------------------------|
D|-3-----------5-----------7-------------|
A|-3-----------5-----------7-------------|
E|-1-1-1-1-1-1-3-3-3-3-3-3-5-5-5-5-5-5-5-|

Primeira Guitarra:
E|--------------|
B|--------------|
G|--------------|       
D|--------------|
A|-6h7-6h7-6h7--|
E|--------------|

Segunda Guitarra:
E|--------------|
B|--------------|
G|--------------|
D|-6h7-6h7-6h7--|
A|--------------|
E|--------------|

Juntas:
E|---------------|
B|---------------|
G|---------------|      
D|---------------|
A|-0-0-0-0-0-0-0-|
E|---------------|

E|---------------------------------------------------------|
B|---------------------------------------------------------|
G|---------------------------------------------------------|
D|-3-----------5-----------7-------------------------------|
A|-3-----------5-----------7-------------------------------|
E|-1-1-1-1-1-1-3-3-3-3-3-3-5-5-5-5-5-5-5-5-5-5-5-5-5-5-5-5-|

E|------------------------------------------------------------|
B|------------------------------------------------------------|
G|------------------------------------------------------------|
D|-12-0-0-12-0-0-12-0-11-0-0-11-0-0-11-0-10-0-0-10-0-0-10-0-9-|
A|------------------------------------------------------------|
E|------------------------------------------------------------|

Primeira Guitarra:
E|---------------------------|
B|---------------------------|
G|---------------------------|
D|-7h8-7h8-7h8-7h8-7h8-7h8-7-|
A|---------------------------|
E|---------------------------|

Segunda Guitarra:
E|---------------------------------|
B|---------------------------------|
G|-9h10-9h10-9h10-9h10-9h10-9h10-9-|
D|---------------------------------|
A|---------------------------------|
E|---------------------------------|

Juntas:
E|------------------------------------------------------------|
B|------------------------------------------------------------|
G|------------------------------------------------------------|
D|-12-0-0-12-0-0-12-0-11-0-0-11-0-0-11-0-10-0-0-10-0-0-10-0-9-|
A|------------------------------------------------------------|
E|------------------------------------------------------------|

E|----------------------------------------------------|
B|----------------------------------------------------|
G|----------------------------------------------------|
D|-7------2-3------4-5------6-6/7-7------2-3------4-5-|
A|-7--0-0-3-3--0-0-5-5--0-0-7-6/7-7--0-0-3-3--0-0-5-5-|
E|-5--------1--------3--------4/5-5--------1--------3-|

E|-----------------------------------------------------|
B|-----------------------------------------------------|
G|-----------------------------------------------------|
D|-3-------------------------5-------------------------|
A|-3-------------------------5-------------------------|
E|-1-1-1-1-1-1-1-1-1-1-1-1-1-3-3-3-3-3-3-3-3-3-3-3-3-3-|

E|-----------------|
B|-----------------|
G|-----------------|
D|-2-3--3-4--5-6-7-|
A|-2-3--3-5--5-6-7-|
E|-0-1--1----3-4-5-|

E|---------------|
B|---------------|
G|---------------|      
D|---------------|
A|-0-0-0-0-0-0-0-|
E|---------------|

E|---------------------------------------------------------|
B|---------------------------------------------------------|
G|---------------------------------------------------------|
D|-3-----------5-----------7-----------------------------7-|
A|-3-----------5-----------7-----------------------------7-|
E|-1-1-1-1-1-1-3-3-3-3-3-3-5-5-5-5-5-5-5-5-5-5-5-5-5-5-5-5-|

E|---------------|
B|---------------|
G|---------------|      
D|---------------|
A|-0-0-0-0-0-0-0-|
E|---------------|

E|---------------------------------------------------------|
B|---------------------------------------------------------|
G|---------------------------------------------------------|
D|-3-----------5-----------7-------------------------------|
A|-3-----------5-----------7-------------------------------|
E|-1-1-1-1-1-1-3-3-3-3-3-3-5-5-5-5-5-5-5-5-5-5-5-5-5-5-5-5-|

E|------------------------------------------------------------|
B|------------------------------------------------------------|
G|------------------------------------------------------------|
D|-12-0-0-12-0-0-12-0-11-0-0-11-0-0-11-0-10-0-0-10-0-0-10-0-9-|
A|------------------------------------------------------------|
E|------------------------------------------------------------|

Primeira Guitarra:
E|---------------------------|
B|---------------------------|
G|---------------------------|
D|-7h8-7h8-7h8-7h8-7h8-7h8-7-|
A|---------------------------|
E|---------------------------|

Segunda Guitarra:
E|---------------------------------|
B|---------------------------------|
G|-9h10-9h10-9h10-9h10-9h10-9h10-9-|
D|---------------------------------|
A|---------------------------------|
E|---------------------------------|

Juntas:
E|------------------------------------------------------------|
B|------------------------------------------------------------|
G|------------------------------------------------------------|
D|-12-0-0-12-0-0-12-0-11-0-0-11-0-0-11-0-10-0-0-10-0-0-10-0-9-|
A|------------------------------------------------------------|
E|------------------------------------------------------------|

E|------------------------------------------------------|
B|------------------------------------------------------|
G|------------------------------------------------------|
D|-6-7------2-3------4-5------6-6/7-7------2-3------4-5-|
A|-7-7--0-0-3-3--0-0-5-5--0-0-7-6/7-7--0-0-3-3--0-0-5-5-|
E|---5--------1--------3--------4/5-5--------1--------3-|

E|-----------------------------------------------------|
B|-----------------------------------------------------|
G|-----------------------------------------------------|
D|-3-------------------------5-------------------------|
A|-3-------------------------5-------------------------|
E|-1-1-1-1-1-1-1-1-1-1-1-1-1-3-3-3-3-3-3-3-3-3-3-3-3-3-|

E|-----------------|
B|-----------------|
G|-----------------|
D|-2-3--3-4--5-6-7-|
A|-2-3--3-5--5-6-7-|
E|-0-1--1----3-4-5-|

E|-----------------------------------------------------------|
B|-----------------------------------------------------------|
G|-----------------------------------------------------------|  
D|---------2-------------2-------------2---------------------|
A|-5h7-----2-5h7-5h7-----2-5h7-5h7-----2-5h7-----------------|
E|-----0-0-----------0-0-----------0-0-------0-0-0-0-0-0-0-0-|

Showdown! 

E|-------------------------------------------------------------|
B|-------------------------------------------------------------|
G|---6---------------------------------------------------------|
D|---6---------------------------7-----------------------------|  
A|---4-4-4-4-4-4-4-4-4-4-4-------7-----------------------------|
E|-4-----------------------4-4-4-5-5-5-5-5-5-5-5-5-4-4-2-2-0-0-|

E|-----------------------------------------------|      
B|-----------------------------------------------|      
G|-----------------------------------------------|      
D|-4-----------5-----7---5-4---------9-----10----|  
A|-2-2-2-2-2-2-3-3-3-5-5-3-2-2-2-2-2-7-7-7-8-8-8-|       
E|-----------------------------------------------|     

Depois de tocar duas vezes, termina com isso:
E|---|
B|---|
G|---|
D|-7-|
A|-7-|
E|-5-|

E|----------|
B|----------|
G|--------5-|
D|-5h7----5-|
A|----0-0---|
E|----------|

E|-------------|
B|-------------|
G|-----------5-|        
D|5-6-7------5-|
A|-----0-0-0---|
E|-------------|

E|------------------------------|
B|------------------------------|
G|----------------------------5-|
D|5-6-7-----------8-7-5-7-----5-|
A|------0-3-4-5-0---------0-0---|
E|------------------------------|

E|-------------|
B|-------------|
G|-----------5-|        
D|5-6-7------5-|
A|-----0-0-0---|
E|-------------|

E|------------------------------|
B|------------------------------|
G|----------------------------5-|
D|5-6-7-----------8-7-5-7-----5-|
A|------0-3-4-5-0---------0-0---|
E|------------------------------|

E|-------------|
B|-------------|
G|-----------5-|        
D|5-6-7------5-|
A|-----0-0-0---|
E|-------------|

E|------------------------------|
B|------------------------------|
G|----------------------------5-|
D|5-6-7-----------8-7-5-7-----5-|
A|------0-3-4-5-0---------0-0---|
E|------------------------------|

E|-------------|
B|-------------|
G|-----------5-|        
D|5-6-7------5-|
A|-----0-0-0---|
E|-------------|

E|--------------------|
B|--------------------|
G|--------------------|
D|5-6-7-----------8-7-|
A|------0-3-4-5-0-----|
E|--------------------|

E|------------------------------------------------------------|
B|------------------------------------------------------------|
G|------------------------------------------------------------|
D|-12-0-0-12-0-0-12-0-11-0-0-11-0-0-11-0-10-0-0-10-0-0-10-0-9-|
A|------------------------------------------------------------|
E|------------------------------------------------------------|

Primeira Guitarra:
E|---------------------------|
B|---------------------------|
G|---------------------------|
D|-7h8-7h8-7h8-7h8-7h8-7h8-7-|
A|---------------------------|
E|---------------------------|

Segunda Guitarra:
E|---------------------------------|
B|---------------------------------|
G|-9h10-9h10-9h10-9h10-9h10-9h10-9-|
D|---------------------------------|
A|---------------------------------|
E|---------------------------------|

Juntas:
E|------------------------------------------------------------|
B|------------------------------------------------------------|
G|------------------------------------------------------------|
D|-12-0-0-12-0-0-12-0-11-0-0-11-0-0-11-0-10-0-0-10-0-0-10-0-9-|
A|------------------------------------------------------------|
E|------------------------------------------------------------|

Solo no fundo:

E|-13-12-10-10-13-12-10-10-13-12-10-10-13-12-10-10-|
B|-------------------------------------------------|
G|-------------------------------------------------|
D|-------------------------------------------------|
A|-------------------------------------------------|
E|-------------------------------------------------|

E|-12-11-9-9-12-11-9-9-12-11-9-9-12-11-9-9-|
B|-----------------------------------------|
G|-----------------------------------------|
D|-----------------------------------------|
A|-----------------------------------------|
E|-----------------------------------------|

E|-11-10-8-8-11-10-8-8-11-10-8-8-11-10-8-8-10-9-7-7-10-9-7-7-|
B|-----------------------------------------------------------|
G|-----------------------------------------------------------|
D|-----------------------------------------------------------|
A|-----------------------------------------------------------|
E|-----------------------------------------------------------|

E|------------------------------------------------------|
B|------------------------------------------------------|
G|------------------------------------------------------|
D|-6-7------2-3------4-5------6-6/7-7------2-3------4-5-|
A|-7-7--0-0-3-3--0-0-5-5--0-0-7-6/7-7--0-0-3-3--0-0-5-5-|
E|---5--------1--------3--------4/5-5--------1--------3-|

E|-----------------------------------------------------|
B|-----------------------------------------------------|
G|-----------------------------------------------------|
D|-3-------------------------5-------------PICK SCRAPE-|
A|-3-------------------------5-------------------------|
E|-1-1-1-1-1-1-1-1-1-1-1-1-1-3-3-3-3-3-3-3-------------|

E|------------------------------------------------------|
B|------------------------------------------------------|
G|------------------------------------------------------|
D|-6-7------2-3------4-5------6-6/7-7------2-3------4-5-|
A|-7-7--0-0-3-3--0-0-5-5--0-0-7-6/7-7--0-0-3-3--0-0-5-5-|
E|---5--------1--------3--------4/5-5--------1--------3-|

E|-----------------------------------------------------|
B|-----------------------------------------------------|
G|-----------------------------------------------------|
D|-3-------------------------5-------------------------|
A|-3-------------------------5-------------------------|
E|-1-1-1-1-1-1-1-1-1-1-1-1-1-3-3-3-3-3-3-3-3-3-3-3-3-3-|

E|--------------------------------------------|
B|--------------------------------------------|
G|--------------------------------------------|
D|-2-3--3-4--5-6-7-5-6-7-5-6-7-and so on------|
A|-2-3--3-5--5-6-7-5-6-7-5-6-7-to the infinity|
E|-0-1--1----3-4-5-3-4-5-3-4-5----------------|

E|----------------------------------------|
B|-13--------15-------15--------18--------|
G|-15b(full)-18b(3/4)-17b(full)-20b(full)-|
D|----------------------------------------|
A|----------------------------------------|
E|----------------------------------------|

Essa parte mais lento:                                     
E|-14/16-16-17-14-16-17-19-16-17-14-16----14-------14-16-17-19|
B|-------------------------------------17----16-17------------|
G|------------------------------------------------------------|
D|------------------------------------------------------------|
A|------------------------------------------------------------|
E|------------------------------------------------------------|

Essa parte mais rápido:
E|-17p16p14-16----14-------------------------------------|
B|-------------17----16h17p16-14-------------------------|
G|-------------------------------16-14-16-14-14-13-14-13-|
D|-------------------------------------------------------|
A|-------------------------------------------------------|
E|-------------------------------------------------------|

E|------------------------------|
B|------------------------------|
G|-11-13-11-13-11-9-11-9--------|
D|-----------------------13-10v-|
A|------------------------------|
E|------------------------------|

E|----------------------------------------|
B|-13--------15-------15--------18--------|
G|-15b(full)-18b(3/4)-17b(full)-20b(full)-|
D|----------------------------------------|
A|----------------------------------------|
E|----------------------------------------|

Mais rápido:
E|-------------------------------------------------------------------------|
B|-------------------------------------------------------14-16-17-14h16h17-|
G|-------------------------------------14-16-18-14h16h18-------------------|
D|-------------------14-16-18-14h16h18-------------------------------------|
A|-16-18-19-16h18h19-------------------------------------------------------|
E|-------------------------------------------------------------------------|

E|-14-16-17-16-14h16p14-16-17-19-17-16-17-22-22b(full)-|
B|-----------------------------------------------------|
G|-----------------------------------------------------|
D|-----------------------------------------------------|
A|-----------------------------------------------------|
E|-----------------------------------------------------|

Segunda Guitarra:

E|-19Tr-19b(half)-17-19-17-15-17-15-14-15-14----14-17-15-14v-|
B|-------------------------------------------17--------------|
G|-----------------------------------------------------------|
D|-----------------------------------------------------------|
A|-----------------------------------------------------------|
E|-----------------------------------------------------------|

E|-----------------------------------------------------------|
B|-16-19-16-15b(half)-16-15-16-15b(half)-15------------------|
G|---------------------------------------16-15-16-15v-h16p15-|
D|-----------------------------------------------------------|
A|-----------------------------------------------------------|
E|-----------------------------------------------------------|

E|----------------------------------------------------------------------|
B|----------------------------------------------------------------------|
G|-13b(half)-15-13-10b(half)h11h13p11p10----7h8-10v--9a.h.-8------------|
D|---------------------------------------13------------------10a.h-9--7-|
A|--------------------------------------------------------------------7-|
E|----------------------------------------------------------------------|

Composição de Pantera
Colaboração e revisão:
  • Pedro Rodrigues
78 exibições
    • ½ Tom
    • A
    • Bb
    • B
    • C
    • Db
    • D
    • Eb
    • E
    • F
    • F#
    • G
    • Ab
  • Adicionar à lista

    0 comentários

    Ver todos os comentários

    Conseguiu tocar?

    0 Tocaram 0 Ainda não

    Grave um vídeo tocando Burnnn! e nos envie!

    00:00 / 00:00
    Outros vídeos desta música
    Repetir Qualidade Automático
    Outros vídeos desta música
    00:00 / 00:00
    Automático

    Cifra Club Pro

    Aproveite o Cifra Club com benefícios exclusivos e sem anúncios
    Cifra Club Pro
    Aproveite o Cifra Club com benefícios exclusivos e sem anúncios
    OK