Cifra Club

Aprenda

I Am The Night

Pantera

Cifra: Principal (violão e guitarra)
Já pensou em usar uma coleção de roupas do Cifra Club? Responda as perguntas abaixo e nos ajude nessa missão! →
tom: A
Album:  I Am the Night
Year:   1985
Part:   Rhythm

(Taken from the guitar pro file, I take no credit for this)

**********************************
**  b       bend to             **
**        pinch harmonics     **
**  h       hammer on           **
**  s       slide to            **
**  ~       let ring            **
**  x       mute the string     **
**********************************

E||----------------------|
B||----------------------|
G||----------------------| there's a run here but I
D||----------------------| don't know how to play it
A||----------------------| and it wasn't in the GP file
E||----------------------|

|----------------------|
|----------------------|
|--5b------------------|
|-------------------2--|
|-------------------0--|
|----------------------|

--------------------------------------|----------------------------------|
--------------------------------------|----------------------------------|
-----7s-6---6s-5---5s-4---4s-3--------|-----7s-6---6s-5---5s-4---7----7--|
--2--5s-4---4s-3---3s-2---2s-1---0h-2-|--2--5s-4---4s-3---3s-2---5----5--|
--0-------0------0------0------0------|--0-------0------0------0---------|
--------------------------------------|----------------------------------|

--------------------------------------|----------------------------------|
--------------------------------------|----------------------------------|
-----7s-6---6s-5---5s-4---4s-3--------|-----7s-6---6s-5---5s-4---7----7--|
--2--5s-4---4s-3---3s-2---2s-1---0h-2-|--2--5s-4---4s-3---3s-2---5----5--|
--0-------0------0------0------0------|--0-------0------0------0---------|
--------------------------------------|----------------------------------|

--------------------------------------|----------------------------------|
--------------------------------------|----------------------------------|
-----7s-6---6s-5---5s-4---4s-3--------|-----7s-6---6s-5---5s-4---7----7--|
--2--5s-4---4s-3---3s-2---2s-1---0h-2-|--2--5s-4---4s-3---3s-2---5----5--|
--0-------0------0------0------0------|--0-------0------0------0---------|
--------------------------------------|----------------------------------|

--------------------------------------|----------------------------------|
--------------------------------------|----------------------------------|
-----7s-6---6s-5---5s-4---4s-3--------|-----7s-6---6s-5---5s-4---7----7--|
--2--5s-4---4s-3---3s-2---2s-1---0h-2-|--2--5s-4---4s-3---3s-2---5----5--|
--0-------0------0------0------0------|--0-------0------0------0---------|
--------------------------------------|----------------------------------|

--------------------------------------|----------------------------------|
--------------------------------------|----------------------------------|
-----7s-6---6s-5---5s-4---4s-3--------|-----7s-6---6s-5---5s-4---7----7--|
--2--5s-4---4s-3---3s-2---2s-1---0h-2-|--2--5s-4---4s-3---3s-2---5----5--|
--0-------0------0------0------0------|--0-------0------0------0---------|
--------------------------------------|----------------------------------|

--------------------------------------|---------------------------------|
--------------------------------------|---------------------------------|
-----7s-6---6s-5---5s-4---4s-3--------|-----7s-6---6s-5---5s-4----------|
--2--5s-4---4s-3---3s-2---2s-1---0h-2-|--2--5s-4---4s-3---3s-2---5------|
--0-------0------0------0------0------|--0-------0------0------0-5------|
--------------------------------------|--------------------------3------|

|----------------------------------|
|----------------------------------|
|----------------------------------|
|--5-------------------------------|
|--3-3-3-3-3-3-3-3-3-3-3-3-3-3-3-3-|
|----------------------------------|

----------------------------------|-------------------|
----------------------------------|-------------------|
----------------------------------|-------------------|
----------------------------------|--2----------------|
--3-3-3-3-3-3-3-3-3-3-3-3-3-3-3-3-|--0----------------|
----------------------------------|-------------------|

----------------------------------|----------------------------------|
----------------------------------|----------------------------------|
----------------------------------|----------------------------------|
----------------------------------|----------------------------------|
--5-------------------------------|----------------------------------|
--3-3-3-3-3-3-3-3-3-3-3-3-3-3-3-3-|--3-3-3-3-3-3-3-3-3-3-3-3-3-3-3-3-|

-------------------|-------------------|
-------------------|-------------------|
-------------------|-------------------|
--2----------------|--5----------------|
--0----------------|--3----------------|
-------------------|-------------------|

------------------------------|-------------------|
------------------------------|-------------------|
------------------~--------|-------------------|
-------2s----5----------------|--7----------------|
--3---------------------------|--5----------------|
------------------------------|-------------------|

------------------------------|-------------------|
------------------------------|-------------------|
------------------~--------|-------------------|
-------4s----7----------------|--5----------------|
--5---------------------------|--3----------------|
------------------------------|-------------------|

------------------------------|-------------------|
------------------------------|-------------------|
------------------~--------|-------------------|
-------2s----5----------------|--7----------------|
--3---------------------------|--5----------------|
------------------------------|-------------------|

------------------------------|--------------------------------|
------------------------------|--------------------------------|
------------------7~--------|-------------------~--------|
-------4s----7----------------|-------7s----10-----------------|
--5---------------------------|--8-----------------------------|
------------------------------|--------------------------------|

------------------------------|--------------------------------|
------------------------------|--------------------------------|
------------------~--------|-------------------~--------|
-------6s----9----------------|-------7s----10-----------------|
--7---------------------------|--8-----------------------------|
------------------------------|--------------------------------|

-------------------------------|--------------------------------------|
-------------------------------|--------------------------------------|
--------------------12~--------|-----7s-6---6s-5---5s-4---4s-3--------|
--------9s----12---------------|--2--5s-4---4s-3---3s-2---2s-1---0h-2-|
--10---------------------------|--0-------0------0------0------0------|
-------------------------------|--------------------------------------|

----------------------------------|--------------------------------------|
----------------------------------|--------------------------------------|
-----7s-6---6s-5---5s-4---7----7--|-----7s-6---6s-5---5s-4---4s-3--------|
--2--5s-4---4s-3---3s-2---5----5--|--2--5s-4---4s-3---3s-2---2s-1---0h-2-|
--0-------0------0------0---------|--0-------0------0------0------0------|
----------------------------------|--------------------------------------|

----------------------------------|--------------------------------------|
----------------------------------|--------------------------------------|
-----7s-6---6s-5---5s-4---7----7--|-----7s-6---6s-5---5s-4---4s-3--------|
--2--5s-4---4s-3---3s-2---5----5--|--2--5s-4---4s-3---3s-2---2s-1---0h-2-|
--0-------0------0------0---------|--0-------0------0------0------0------|
----------------------------------|--------------------------------------|

----------------------------------|--------------------------------------|
----------------------------------|--------------------------------------|
-----7s-6---6s-5---5s-4---7----7--|-----7s-6---6s-5---5s-4---4s-3--------|
--2--5s-4---4s-3---3s-2---5----5--|--2--5s-4---4s-3---3s-2---2s-1---0h-2-|
--0-------0------0------0---------|--0-------0------0------0------0------|
----------------------------------|--------------------------------------|

----------------------------------|----------------------------------|
----------------------------------|----------------------------------|
-----7s-6---6s-5---5s-4---7----7--|----------------------------------|
--2--5s-4---4s-3---3s-2---5----5--|--5-------------------------------|
--0-------0------0------0---------|--3-3-3-3-3-3-3-3-3-3-3-3-3-3-3-3-|
----------------------------------|----------------------------------|

----------------------------------|-----------------------------|
----------------------------------|-----------------------------|
----------------------------------|---------------5~------------|
----------------------------------|-----7--x-5--x------7--x-5-7-|
--3-3-3-3-3-3-3-3-3-3-3-3-3-3-3-3-|--0--------------------------|
----------------------------------|-----------------------------|

-----------------------------|----------------------------------|
-----------------------------|----------------------------------|
---------------5~------------|----------------------------------|
-----7--x-5--x------7--x-5-7-|----------------------------------|
--0--------------------------|--5-------------------------------|
-----------------------------|--3-3-3-3-3-3-3-3-3-3-3-3-3-3-3-3-|

----------------------------------|----------------------|
----------------------------------|----------------------|
----------------------------------|--------------------x-|
----------------------------------|--2-------------------|
----------------------------------|--0-------------------|
--3-3-3-3-3-3-3-3-3-3-3-3-3-3-3-3-|----------------------|

-------------------------|-------------------|------------------------------|
-------------------------|-------------------|------------------------------|
--7b----5----5~----------|-------------------|------------------~--------|
-----------7-------------|--5----------------|-------2s----5----------------|
-------------------------|--3----------------|--3---------------------------|
-------------------------|-------------------|------------------------------|

-------------------|------------------------------|-------------------|
-------------------|------------------------------|-------------------|
-------------------|------------------~--------|-------------------|
--7----------------|-------4s----7----------------|--5----------------|
--5----------------|--5---------------------------|--3----------------|
-------------------|------------------------------|-------------------|

------------------------------|-------------------|
------------------------------|-------------------|
------------------~--------|-------------------|
-------2s----5----------------|--7----------------|
--3---------------------------|--5----------------|
------------------------------|-------------------|

------------------------------|--------------------------------|
------------------------------|--------------------------------|
------------------~--------|-------------------~--------|
-------4s----7----------------|-------7s----10-----------------|
--5---------------------------|--8-----------------------------|
------------------------------|--------------------------------|

------------------------------|--------------------------------|
------------------------------|--------------------------------|
------------------~--------|-------------------~--------|
-------6s----9----------------|-------7s----10-----------------|
--7---------------------------|--8-----------------------------|
------------------------------|--------------------------------|

-------------------------------|--------------------------------------|
-------------------------------|--------------------------------------|
--------------------12~--------|-----7s-6---6s-5---5s-4---4s-3--------|
--------9s----12---------------|--2--5s-4---4s-3---3s-2---2s-1---0h-2-|
--10---------------------------|--0-------0------0------0------0------|
-------------------------------|--------------------------------------|

----------------------------------|--------------------------------------|
----------------------------------|--------------------------------------|
-----7s-6---6s-5---5s-4---7----7--|-----7s-6---6s-5---5s-4---4s-3--------|
--2--5s-4---4s-3---3s-2---5----5--|--2--5s-4---4s-3---3s-2---2s-1---0h-2-|
--0-------0------0------0---------|--0-------0------0------0------0------|
----------------------------------|--------------------------------------|

----------------------------------|--------------------------------------|
----------------------------------|--------------------------------------|
-----7s-6---6s-5---5s-4---7----7--|-----7s-6---6s-5---5s-4---4s-3--------|
--2--5s-4---4s-3---3s-2---5----5--|--2--5s-4---4s-3---3s-2---2s-1---0h-2-|
--0-------0------0------0---------|--0-------0------0------0------0------|
----------------------------------|--------------------------------------|

----------------------------------|--------------------------------------|
----------------------------------|--------------------------------------|
-----7s-6---6s-5---5s-4---7----7--|-----7s-6---6s-5---5s-4---4s-3--------|
--2--5s-4---4s-3---3s-2---5----5--|--2--5s-4---4s-3---3s-2---2s-1---0h-2-|
--0-------0------0------0---------|--0-------0------0------0------0------|
----------------------------------|--------------------------------------|

----------------------------------|------------------------------|
----------------------------------|------------------------------|
-----7s-6---6s-5---5s-4---7----7--|------------------~--------|
--2--5s-4---4s-3---3s-2---5----5--|-------4s----7----------------|
--0-------0------0------0---------|--5---------------------------|
----------------------------------|------------------------------|

------------------------------|--------------------------------|
------------------------------|--------------------------------|
------------------~--------|-------------------~--------|
-------6s----9----------------|-------7s----10-----------------|
--7---------------------------|--8-----------------------------|
------------------------------|--------------------------------|

-------------------------------|-------------|
-------------------------------|-------------|
--------------------12~--------|-------------|
--------9s----12---------------|-------------|
--10---------------------------|--7--------7-|
-------------------------------|--5--------5-|

-------|------|--------|-------------|-------|-------|---------|
-------|------|--------|-------------|-------|-------|---------|
-------|----5-|---7----|-------------|-------|-----5-|---7-----|
-----5-|----5-|---7----|-------------|-----5-|-----5-|---7-----|
-----5-|------|--------|--7--------7-|-----5-|-------|---------|
-------|------|--------|--5--------5-|-------|-------|---------|

----------------------------------|--------------------------------|
----------------------------------|--------------------------------|
--7-6-----5-4-----7-6-----5-4-----|--3-2-----3-2-----3-2-----2~----|
------7-x-----5-x-----7-x-----5-x-|------3-x-----3-x-----3-x-------|
----------------------------------|--------------------------------|
----------------------------------|--------------------------------|

----------------------------------|--------------------------------|
----------------------------------|--------------------------------|
--7-6-----5-4-----7-6-----5-4-----|--3-2-----3-2-----3-2-----2~----|
------7-x-----5-x-----7-x-----5-x-|------3-x-----3-x-----3-x-------|
----------------------------------|--------------------------------|
----------------------------------|--------------------------------|

------------------------------|------------------------------|
------------------------------|------------------------------|
------------------~--------|------------------~--------|
-------4s----7----------------|-------6s----9----------------|
--5---------------------------|--7---------------------------|
------------------------------|------------------------------|

--------------------------------|-------------------------------|
--------------------------------|-------------------------------|
-------------------~--------|--------------------12~--------|
-------7s----10-----------------|--------9s----12---------------|
--8-----------------------------|--10---------------------------|
--------------------------------|-------------------------------|

----------------------|--------------------------------------|
----------------------|--------------------------------------|
--5b------------------|-----7s-6---6s-5---5s-4---4s-3--------|
-------------------2--|--2--5s-4---4s-3---3s-2---2s-1---0h-2-|
-------------------0--|--0-------0------0------0------0------|
----------------------|--------------------------------------|

----------------------------------|--------------------------------------|
----------------------------------|--------------------------------------|
-----7s-6---6s-5---5s-4---7----7--|-----7s-6---6s-5---5s-4---4s-3--------|
--2--5s-4---4s-3---3s-2---5----5--|--2--5s-4---4s-3---3s-2---2s-1---0h-2-|
--0-------0------0------0---------|--0-------0------0------0------0------|
----------------------------------|--------------------------------------|

----------------------------------|--------------------------------------|
----------------------------------|--------------------------------------|
-----7s-6---6s-5---5s-4---7----7--|-----7s-6---6s-5---5s-4---4s-3--------|
--2--5s-4---4s-3---3s-2---5----5--|--2--5s-4---4s-3---3s-2---2s-1---0h-2-|
--0-------0------0------0---------|--0-------0------0------0------0------|
----------------------------------|--------------------------------------|

----------------------------------|--------------------------------------|
----------------------------------|--------------------------------------|
-----7s-6---6s-5---5s-4---7----7--|-----7s-6---6s-5---5s-4---4s-3--------|
--2--5s-4---4s-3---3s-2---5----5--|--2--5s-4---4s-3---3s-2---2s-1---0h-2-|
--0-------0------0------0---------|--0-------0------0------0------0------|
----------------------------------|--------------------------------------|

----------------------------------|--------------------------------------|
----------------------------------|--------------------------------------|
-----7s-6---6s-5---5s-4---7----7--|-----7s-6---6s-5---5s-4---4s-3--------|
--2--5s-4---4s-3---3s-2---5----5--|--2--5s-4---4s-3---3s-2---2s-1---0h-2-|
--0-------0------0------0---------|--0-------0------0------0------0------|
----------------------------------|--------------------------------------|

----------------------------------|--------------------------------------|
----------------------------------|--------------------------------------|
-----7s-6---6s-5---5s-4---7----7--|-----7s-6---6s-5---5s-4---4s-3--------|
--2--5s-4---4s-3---3s-2---5----5--|--2--5s-4---4s-3---3s-2---2s-1---0h-2-|
--0-------0------0------0---------|--0-------0------0------0------0------|
----------------------------------|--------------------------------------|

----------------------------------|---------------------------|
----------------------------------|------------------5--------|
-----7s-6---6s-5---5s-4---7----7--|------------------5--------|
--2--5s-4---4s-3---3s-2---5----5--|-------2s----5-------------|
--0-------0------0------0---------|--3------------------------|
----------------------------------|---------------------------|

---------------------------|---------------------------|
------------------7--------|------------------5--------|
------------------7--------|------------------5--------|
-------4s----7-------------|-------2s----5-------------|
--5------------------------|--3------------------------|
---------------------------|---------------------------|

---------------------------|-----------------------------|
------------------7--------|-------------------10--------|
------------------7--------|-------------------10--------|
-------4s----7-------------|-------7s----10--------------|
--5------------------------|--8--------------------------|
---------------------------|-----------------------------|

---------------------------|-----------------------------|
------------------9--------|-------------------10--------|
------------------9--------|-------------------10--------|
-------6s----9-------------|-------7s----10--------------|
--7------------------------|--8--------------------------|
---------------------------|-----------------------------|

------------------------------|--------------------------------------|
--------------------12--------|--------------------------------------|
--------------------12--------|-----7s-6---6s-5---5s-4---4s-3--------|
--------9s----12--------------|--2--5s-4---4s-3---3s-2---2s-1---0h-2-|
--10--------------------------|--0-------0------0------0------0------|
------------------------------|--------------------------------------|

----------------------------------|--------------------------------------|
----------------------------------|--------------------------------------|
-----7s-6---6s-5---5s-4---7----7--|-----7s-6---6s-5---5s-4---4s-3--------|
--2--5s-4---4s-3---3s-2---5----5--|--2--5s-4---4s-3---3s-2---2s-1---0h-2-|
--0-------0------0------0---------|--0-------0------0------0------0------|
----------------------------------|--------------------------------------|

----------------------------------|--------------------------------------|
----------------------------------|--------------------------------------|
-----7s-6---6s-5---5s-4---7----7--|-----7s-6---6s-5---5s-4---4s-3--------|
--2--5s-4---4s-3---3s-2---5----5--|--2--5s-4---4s-3---3s-2---2s-1---0h-2-|
--0-------0------0------0---------|--0-------0------0------0------0------|
----------------------------------|--------------------------------------|

----------------------------------|--------------------------------------|
----------------------------------|--------------------------------------|
-----7s-6---6s-5---5s-4---7----7--|-----7s-6---6s-5---5s-4---4s-3--------|
--2--5s-4---4s-3---3s-2---5----5--|--2--5s-4---4s-3---3s-2---2s-1---0h-2-|
--0-------0------0------0---------|--0-------0------0------0------0------|
----------------------------------|--------------------------------------|

---------------------------------|
---------------------------------|
-----7s-6---6s-5---5s-4----------|
--2--5s-4---4s-3---3s-2---5------|
--0-------0------0------0-5------|
--------------------------3------|

|--------------------------------------------|
|--------------------------------------------|
|--------------------------------------------|
|--12p-10----10---10s-9----9s-7---7---7s-5---|
|---------12------------10------9----------7-|
|--------------------------------------------|

----------------------------|
----------------------------|
----------------2-----------|
--5s-4---4s-2---2-----------|
-------5------4-0-----------|
----------------------------|

---------------------||
---------------------||
--2------------------||
--2------------------||
--0------------------||
---------------------||
Compositor não encontrado.
581 exibições
    • ½ Tom
    • A
    • Bb
    • B
    • C
    • Db
    • D
    • Eb
    • E
    • F
    • F#
    • G
    • Ab
  • Adicionar à lista

    0 comentários

    Ver todos os comentários

    Conseguiu tocar?

    0 Tocaram 0 Ainda não

    Grave um vídeo tocando I Am The Night e nos envie!

    00:00 / 00:00
    Outros vídeos desta música
    Repetir Qualidade Automático
    Outros vídeos desta música
    00:00 / 00:00
    Automático

    Cifra Club Pro

    Aproveite o Cifra Club com benefícios exclusivos e sem anúncios
    Cifra Club Pro
    Aproveite o Cifra Club com benefícios exclusivos e sem anúncios
    OK