Cifra Club

Aprenda

White Lies

Paolo Nutini

Cifra: Principal (violão e guitarra)
tom: D
essa música é fácil de tocar, basea-se nessa tablatura 

E|------2-----2-----2-----2-----2-----7-----7-----7-----7-----7-----| x2
B|----5-----5-----5-----5-----5---------0-----0-----0-----0-----0---|
G|------------------------------------------------------------------|
D|--0-----0-----0-----0-----0-----0-0-----0-----0-----0-----0-----0-|
A|------------------------------------------------------------------|
E|------------------------------------------------------------------|

E|------2-----2-----2-----2-----2-----7-----7-----7-----7-----7-----|
B|----5-----5-----5-----5-----5---------0-----0-----0-----0-----0---|
G|------------------------------------------------------------------|
D|--0-----0-----0-----0-----0-----0-0-----0-----0-----0-----0-----0-|
A|------------------------------------------------------------------|
E|------------------------------------------------------------------|
There's a heart...         On the line

E|------2-----2-----2-----2-----2-----7-----7-----7-----7-----7-----|
B|----5-----5-----5-----5-----5---------0-----0-----0-----0-----0---|
G|------------------------------------------------------------------|
D|--0-----0-----0-----0-----0-----0-0-----0-----0-----0-----0-----0-|
A|------------------------------------------------------------------|
E|------------------------------------------------------------------|
And it rests...             With your eyes

E|------2-----2-----2-----2-----2-----0-----0-----0-----0-----0-----|
B|----5-----5-----5-----5-----5---------2-----2-----2-----2-----2---|
G|------------------------------------------------------------------|
D|--0-----0-----0-----0-----0-----0-0-----0-----0-----0-----0-----0-|
A|------------------------------------------------------------------|
E|------------------------------------------------------------------|
Please don't fade, and please don't cry

E|----1-----1-----1---0-----0-----0-----2-----2-----2-----2-----2---|
B|------0-----0---------0-----0-------5-----5-----5-----5-----5-----|
G|------------------------------------------------------------------|
D|--0-----0-----0---0-----0-----0---0-----0-----0-----0-----0-----0-|
A|------------------------------------------------------------------|
E|------------------------------------------------------------------|
'Cause it's all...  White...        Lies...
Composição de John Fortis / Paolo Nutini
Colaboração e revisão:
  • Daiane Baroni
1.269 exibições
    • ½ Tom
    • A
    • Bb
    • B
    • C
    • Db
    • D
    • Eb
    • E
    • F
    • F#
    • G
    • Ab
  • Adicionar à lista

    0 comentários

    Ver todos os comentários

    Conseguiu tocar?

    0 Tocaram 0 Ainda não

    Grave um vídeo tocando White Lies e nos envie!

    00:00 / 00:00
    Outros vídeos desta música
    Repetir Qualidade Automático
    Outros vídeos desta música
    00:00 / 00:00
    Automático

    Cifra Club Pro

    Aproveite o Cifra Club com benefícios exclusivos e sem anúncios
    Cifra Club Pro
    Aproveite o Cifra Club com benefícios exclusivos e sem anúncios
    OK