Cifra Club

She loves me not

Papa Roach

Cifra: Principal (violão e guitarra)
tom: C
VERSO

D------------------------------------------------------
A------------------------------------------------------
F------------------------------------------------------
C--99----55----22-----4444-----------------------------
G--99----55----22-----4444-----------------------------
C--77----33----00-----2222-----------------------------

D------------------------------------------------------
A------------------------------------------------------
F------------------------------------------------------
C--99----55----22-----4444-----------------------------
G--99----55----22-----4444-----------------------------
C--77----33----00-----2222-----------------------------

D------------------------------------------------------
A------------------------------------------------------
F------------------------------------------------------
C--99999----55555----22222-----44444-------------------
G--99999----55555----22222-----44444-------------------
C--77777----33333----00000-----22222-------------------

Refrão

D------------------------------------------------------
A------------------------------------------------------
F------------------------------------------------------
C--5555----7777----9999--------------------------------
G--5555----7777----9999--------------------------------
C--3333----5555----7777--------------------------------

D------------------------------------------------------
A------------------------------------------------------
F------------------------------------------------------
C--5555----7777----9999--------------------------------
G--5555----7777----9999--------------------------------
C--3333----5555----7777--------------------------------

D----------------------------------------------------
A----------------------------------------------------
F----------------------------------------------------
C--55-55----77----99---------------------------------
G--55-55----77----99---------------------------------
C--33-33----55----77---------------------------------


VERSO

D------------------------------------------------------
A------------------------------------------------------
F------------------------------------------------------
C--99----55----22-----4444-----------------------------
G--99----55----22-----4444-----------------------------
C--77----33----00-----2222-----------------------------

D------------------------------------------------------
A------------------------------------------------------
F------------------------------------------------------
C--99----55----22-----4444-----------------------------
G--99----55----22-----4444-----------------------------
C--77----33----00-----2222-----------------------------

D------------------------------------------------------
A------------------------------------------------------
F------------------------------------------------------
C--99999----55555----22222-----44444-------------------
G--99999----55555----22222-----44444-------------------
C--77777----33333----00000-----22222-------------------

Refrão

D------------------------------------------------------
A------------------------------------------------------
F------------------------------------------------------
C--5555----7777----9999--------------------------------
G--5555----7777----9999--------------------------------
C--3333----5555----7777--------------------------------

D------------------------------------------------------
A------------------------------------------------------
F------------------------------------------------------
C--5555----7777----9999--------------------------------
G--5555----7777----9999--------------------------------
C--3333----5555----7777--------------------------------

D----------------------------------------------------
A----------------------------------------------------
F----------------------------------------------------
C--55-55----77-77---9999-----------------------------
G--55-55----77-77---9999-----------------------------
C--33-33----55-55---7777-----------------------------

VERSO

D------------------------------------------------------
A------------------------------------------------------
F------------------------------------------------------
C--99----55----22-----4444-----------------------------
G--99----55----22-----4444-----------------------------
C--77----33----00-----2222-----------------------------

D------------------------------------------------------
A------------------------------------------------------
F------------------------------------------------------
C--99----55----22-----4444-----------------------------
G--99----55----22-----4444-----------------------------
C--77----33----00-----2222-----------------------------

D------------------------------------------------------
A------------------------------------------------------
F------------------------------------------------------
C--99999----55555----22222-----44444-------------------
G--99999----55555----22222-----44444-------------------
C--77777----33333----00000-----22222-------------------

Refrão

D------------------------------------------------------
A------------------------------------------------------
F------------------------------------------------------
C--5555----7777----9999--------------------------------
G--5555----7777----9999--------------------------------
C--3333----5555----7777--------------------------------

D------------------------------------------------------
A------------------------------------------------------
F------------------------------------------------------
C--5555----7777----9999--------------------------------
G--5555----7777----9999--------------------------------
C--3333----5555----7777--------------------------------

D------------------------------------------------------
A------------------------------------------------------
F------------------------------------------------------
C--5555----7777----9999--------------------------------
G--5555----7777----9999--------------------------------
C--3333----5555----7777--------------------------------

D------------------------------------------------------
A------------------------------------------------------
F------------------------------------------------------
C--5555----7777----9999--------------------------------
G--5555----7777----9999--------------------------------
C--3333----5555----7777--------------------------------


LETRA

Papa Roach - She Loves Me Not

When I see her eyes look into my eyes
Then I realize that she can see inside my head
So I close my eyes thinking that I could hide
Disassociate so I don't have to lose my head
The situation, is to adjatation if she cut me off
Would this be an amputation?

[REFRAO]
I don't know if I care
I'm the jerk, life's not fair
Fighting all the time
This is out of line
She loves me not, loves me not!
Do you realize I won't compromise
She loves me not, loves me not!

Over the past five years I have shed my tears
I have drank my beers and watch my fingers fly away
Then until this day you still swing my way
But its sad to say sometimes she says she loves me not
But I hesatate to tell her I hate
This relationship I wanted to date this is over

[REFRAO]
Life's Not Fair
I'm the jerk!

Line for line, ryhme for ryhme
Sometimes I be writin' all the goddam time
It's makin' me sick
Relationship is gettin' ill
This your stupid man
On the lil, could you feel
What I feel, what's the deal girl
We're tearin' up each others world
We should be in harmony boy and girl
That is a promise we made
Back in the day
You told me that things wouldn't be this way
I think we should work this out
'Cause all I didn't mean is to scream and shout

[REFRAO]

Life's not fair!
Life's not fair!
Life's not fair!
I'm the jerk!
Life's not fair!
She loves me not!
Loves me not!
00:00 / 00:00
Outros vídeos desta música
Repetir
Outros vídeos desta música
Composição de Jacoby Shaddix
Colaboração e revisão:
  • Erick Marques
  • Rafael Santos
57.396 exibições
    • ½ Tom
    • A
    • Bb
    • B
    • C
    • Db
    • D
    • Eb
    • E
    • F
    • F#
    • G
    • Ab
  • Adicionar à lista

    0 comentários

    Ver todos os comentários

    Entre para oCifra Club PRO

    Tenha acesso a benefícios exclusivos no App e no Site

    • Chega de anúncios

    • Prioridade de compra em lançamentos

    • Mais recursos no app do Afinador

    • Atendimento Prioritário

    • Descontos nos produtos Cifra Club

    • Ajude a produzir mais conteúdo

    00:00 / 00:00

    Cifra Club Pro

    Aproveite o Cifra Club com benefícios exclusivos e sem anúncios
    Cifra Club Pro
    Aproveite o Cifra Club com benefícios exclusivos e sem anúncios
    OK