Notificações Amigos pendentes

      Papa Roach

      Time and time again

      12.575 exibições
      Tom: F#
      Drop-Db (Db, Ab, Db, Gb, Bb, Eb)
      
      
      --------------------------------------|---------------------------------------
      --------------------------------------|---------------------------------------
      --------------------------------------|---------------------------------------
      -4-4-4-6-6-6-7-7-7-9-9-9-11-11-11-14--|-14-14-11-14-14-11-14-14-11-14-14-11---
      -4-4-4-6-6-6-7-7-7-9-9-9-11-11-11-14--|-14-14-11-14-14-11-14-14-11-14-14-11---
      -4-4-4-6-6-6-7-7-7-9-9-9-11-11-11-14--|-14-14-11-14-14-11-14-14-11-14-14-11---
      
       Heavy Intro                            Transitions to Verse                  
      
      
      ----------|-------------------------------------------------------------------
      ----------|-------------------------------------------------------------------
      ----------|-------------------------------------------------------------------
      -14-14-11-|-------------------------------------------------------------------
      -14-14-11-|-------------------------------------------------------------------
      -14-14-11-|-7-7-4-4-7-7-4-4-7-7-4-4-7-7-4-4-7-7-4-4-7-7-4-4-7-7-4-4-7-7-4-4---
      
                  Verse (w/ wah)                                                    
      
      
      ------------------------------------------------------------------------------
      ------------------------------------------------------------------------------
      ------------------------------------------------------------------------------
      ------------------------------------------------------------------------------
      ---------4-4-7-7-4-4-7-7-4-4-7-7-4-4-7-7-4-4-7-7-4-4-7-7-4-4-7-7-4-4-7-7------
      -7-7-4-4----------------------------------------------------------------------
      
                                                                                    
      
      
      ------------|-----------------------------------------------------------------
      ------------|-----------------------------------------------------------------
      ------------|-------------------------------------------------8---------------
      ---6---7----|-8------11---15\--4--6-------8------11---15\--4--8---------------
      -x-6-x-7----|-8------11---15\--4--6-------8------11---15\--4--6---------------
      -x-6-x-7----|-8------11---15\--4--6-------8------11---15\--4--6---------------
      
       Pre Chorus  Chorus (TIME AND TIME AGAIN YOU'LL THINK ABOUT YOURSELF...)      
      
      
      ------------------------------------------------------------------------------
      ------------------------------------------------------------------------------
      -------6-6-6-6--6-6-6-6--6-6-6-6-9-9-9-9--9-9-9-9-----------------------------
      -12\---6-6-6-6--6-6-6-6--6-6-6-6-9-9-9-9--9-9-9-9--12\--0-0-0-0--0-0-0-0------
      -12\---4-4-4-4--4-4-4-4--4-4-4-4-7-7-7-7--7-7-7-7--12\--0-0-0-0--0-0-0-0------
      -12\---4-4-4-4--4-4-4-4--4-4-4-4-7-7-7-7--7-7-7-7--12\--0-0-0-0--0-0-0-0------
      
       Bridge (x2)                                                                  
      
      
      ------------------------------------|-----------------------------------------
      ------------------------------------|-----------------------------------------
      ------------------------------------|-----------------------------------------
      -0-0-0-0-2-2-2-2--2-2-2-2--2-2-2-2--|-2-2-2-2-2-2-2-2-------------------------
      -0-0-0-0-2-2-2-2--2-2-2-2--2-2-2-2--|-2-2-2-2-2-2-2-2-------------------------
      -0-0-0-0-2-2-2-2--2-2-2-2--2-2-2-2--|-2-2-2-2-2-2-2-2-------------------------
      
                                            After 2nd Time (Palm Mute)              
        Composição: Jacoby Shaddix

        Comentários 0

        140 .
        140 cancelar

        conseguiu tocar?

        covers

        Grave um vídeo tocando Time and time again e mande pra gente!

        Ex.: http://www.youtube.com/watch?v=0IvSvIwGdwk
        ver covers de outras músicas »
        0:00 / 0:00

        Capítulos

          1 versão de violão dificuldade exibições contribuição e correção
          1 versão de guitarra dificuldade exibições contribuição e correção
          1 versão de cavaco dificuldade exibições contribuição e correção
          1 versão de teclado dificuldade exibições contribuição e correção
          3 versões de baixo exibições contribuição e correção
          1 versão de bateria exibições contribuição e correção
          2 versões de Guitar Proformatodownloadscontribuição
          play/pausefechar subir/descer velocidade
          6ª corda E5ª corda A4ª corda D3ª corda G2ª corda B1ª corda E
            acordes
            publicidade
            fechar
            ok