Cifra Club

Em setembro

Papas da Língua

Cifra: Principal (violão e guitarra)
Selo Cifra Club: esta cifra foi revisada para atender aos critérios oficiais da nossa Equipe de Qualidade.
tom: F
[Into] F  Bb  C
       F  Bb  C

E|-----------------------------------------------------|
B|-----------------------------------------------------|
G|-----------------------------------------------------|
D|-----2-4-6-4-2-----2-1-------------------------------|
A|---2----------2-2s4----------------------------------|
E|-----------------------------------------------------|

E|-----------------------------------------------------|
B|-----------------------------------------------------|
G|-----------------------------------------------------|
D|-----2-4-6-4-2-----2-4-------------------------------|
A|---2----------2-2s4----------------------------------|
E|-----------------------------------------------------|

E|-----------------------------------------------------|
B|-----------------------------------------------------|
G|-----------------------------------------------------|
D|-----2-4-6-4-2-------2-1-----------------------------|
A|---2-----------2-2s4-----2S4-------------------------|
E|-----------------------------------------------------|

E|-----------------------------------------------------|
B|-----------------------------------------------------|
G|-------------4---------------------------------------|
D|-----2-4-6-4---2S4---2-4-2---------------------------|
A|---2-------------------------------------------------|
E|-----------------------------------------------------|

 F       Bb       C
 Dia sim, dia nao, ah nao
 F         Bb
 Quase vou, louco pra te
 C
 Encontrar
 F      Bb           C   
 Ando so, folha no vento
 F         Bb       C
 Sol nao ha, so pensamento
 F            Bb
 Espero Voce, uuu
        C
 Como a lua espera
 F            Bb  
 Quero voce, uuu
        C
 Como o ceu no cio
 F           Bb   
 Quero voce,uuu
       C 
 Na beira do rio
 F              Bb      C
 Quero voce, espero o tempo
 F
 Passar

( F  Bb  C )
( F  Bb  C )

 Dm           Bb
 So ilusao sera
        Dm           Bb
 Ao teu lado ser feliz
     C  Dm Bb C   
 E sonhar
 Dm Bb Dm   Bb
 So ilusao sera
        Dm       Bb     C   F    
 Outro dia lindo pra te buscar
 Bb    F     Bb   F
 Em setembro, oooooo
 Bb    F          Bb
 Em setembro nos vamos
   C  F
 Passear

( F  Bb  C )
( F  Bb  C )

 F       Bb       C
 Dia sim, dia nao, ah nao
 F         Bb
 Quase vou, louco pra te
 C
 Encontrar
 F      Bb           C   
 Ando so, folha no vento
 F         Bb       C
 Sol nao ha, so pensamento
 F            Bb
 Espero Voce, uuu
        C
 Como a lua espera
 F            Bb  
 Quero voce, uuu
        C
 Como o ceu no cio
 F           Bb   
 Quero voce,uuu
       C 
 Na beira do rio
 F              Bb      C
 Quero voce, espero o tempo
 F
 Passar

( F  Bb  C )
( F  Bb  C )

 Dm           Bb
 So ilusao sera
        Dm           Bb
 Ao teu lado ser feliz
     C  Dm Bb C   
 E sonhar
 Dm Bb Dm   Bb
 So ilusao sera
        Dm       Bb     C   F    
 Outro dia lindo pra te buscar
 Bb    F     Bb   F
 Em setembro, oooooo
 Bb    F          Bb
 Em setembro nos vamos
   C  F
 Passear
00:00 / 00:00
Outros vídeos desta música
Repetir
Outros vídeos desta música
37.980 exibições
    • ½ Tom
    • A
    • Bb
    • B
    • C
    • Db
    • D
    • Eb
    • E
    • F
    • F#
    • G
    • Ab
  • Adicionar à lista

Afinação da cifra

Afinador online

    0 comentários

    Ver todos os comentários

    Entre para o Cifra Club PRO

    Tenha acesso a benefícios exclusivos no App e no Site

    • Chega de anúncios

    • Mais recursos no app do Afinador

    • Atendimento Prioritário

    • Aumente seu limite de lista

    • Ajude a produzir mais conteúdo

    00:00 / 00:00

    Cifra Club Pro

    Aproveite o Cifra Club com benefícios exclusivos e sem anúncios
    Cifra Club Pro
    Aproveite o Cifra Club com benefícios exclusivos e sem anúncios
    OK