Cifra Club

Aprenda

Come To The River

Parachute

Cifra: Principal (violão e guitarra)
Tom: Am
Intro / Verso:
E|---------------------------------------------------------------------------|
B|-12-13-13-13-13--10--13-17-17-17-17--12-------------17---------------------|
G|-13-14-14-14-14--10--13-17-17-17-17--12-------------17---------------------|
D|---------------------------------------------------------------------------|
A|---------------------------------------------------------------------------|
E|---------------------------------------------------------------------------|

Refrão:
E|---------------------------------------------------------------------------|
B|---------------------------------------------------------------------------|
G|---------------------------------------------------------------------------|
D|--10---------5----------7---------3----------------------------------------|
A|--10---------5----------7---------3----------------------------------------|
E|--8----------3----------5---------1----------------------------------------|

E|-------------------------------------------------------1515151515----------|
B|-------------------------------171717171717151515131313----------13131313--|
G|-171717171717171616161614141414--------------------------------------------|
D|---------------------------------------------------------------------------|
A|---------------------------------------------------------------------------|
E|---------------------------------------------------------------------------|

E|---------------------------------------------------------------------------|
B|-17171717151515151212121212------------------------------------------------|
G|---------------------------------------------------------------------------|
D|---------------------------------------------------------------------------|
A|---------------------------------------------------------------------------|
E|---------------------------------------------------------------------------|

E|---------------------------------------------------------------------------|
B|--7------------------5-----------------------------------------------------|
G|--7------------------5-----------------------------------------------------|
D|--7----------7-------5--------5--------------------------------------------|
A|--5----------7-------3--------5--------------------------------------------|
E|-------------5----------------3--------------------------------------------|
Composição de Omega Levine / Richard Knott / Sam De Jong
Colaboração e revisão:
  • Jefferson Sousa
843 exibições
    • ½ Tom
    • Am
    • Bbm
    • Bm
    • Cm
    • C#m
    • Dm
    • Ebm
    • Em
    • Fm
    • F#m
    • Gm
    • G#m
  • Adicionar à lista

    0 comentários

    Mostrar mais comentários

    Conseguiu tocar?

    0 Tocaram 0 Ainda não

    Grave um vídeo tocando Come To The River e mande pra gente!

    00:00 / 00:00
    outros vídeos desta música
    repetir qualidade Automático
    Outros vídeos desta música
    00:00 / 00:00
    Automático

    Cifra Club Pro

    Aproveite o Cifra Club com benefícios exclusivos e sem anúncios
    Cifra Club Pro
    Aproveite o Cifra Club com benefícios exclusivos e sem anúncios
    OK