Cifra Club

Decode

Paramore

Cifra: Principal
exibições 469.178
Tom: C
(afinação DADGAD - 1/2 tom abaixo)

(intro 2x - violão base) F5(9)  Dm7(11)  Am7  C7M/E

(intro - violão 2)

(parte a)
(1/2)
E|-------------------------------10------------------
B|-12--------12--------12----------------------------
G|------11--------11--------11--------11-------------
D|----0----0----0----0----0----0----0----0-----------
A|---------------------------------------------------
E|---------------------------------------------------

(2/2)
E|-------------------------------10------------------
B|-12--------12--------12----------------------------
G|------11--------11--------11-----------------------
D|----0----0----0----0----0----0---------------------
A|---------------------------------------------------
E|---------------------------------------------------

(parte b)
(1/2)
E|------------------------------14-------------------
B|-12--------12-------12-----------------------------
G|------14--------14-------14--------14--------------
D|----0----0----0----0---0----0----0----0------------
A|---------------------------------------------------
E|---------------------------------------------------

(2/2)
E|-------------------------------12-------------------
B|-12--------12--------12-----------------------------
G|------14--------14--------14------------------------
D|----0----0----0----0----0----0----------------------
A|---------------------------------------------------
E|---------------------------------------------------

(primeira parte)

(parte c)
(1/2)
E|-------------------10------------------------------
B|-12----12----12------------------------------------
G|----11----11----11----11---------------------------
D|---------------------------------------------------
A|---------------------------------------------------
E|---------------------------------------------------

(2/2)
E|-------------------10------------------------------
B|-12----12----12------------------------------------
G|----11----11----11---------------------------------
D|---------------------------------------------------
A|---------------------------------------------------
E|---------------------------------------------------

(parte d)
(1/2)
E|-------------------14------------------------------
B|-12----12----12------------------------------------
G|----14----14----14----14---------------------------
D|---------------------------------------------------
A|---------------------------------------------------
E|---------------------------------------------------

(2/2)
E|-12----12----12----12------------------------------
B|---------------------------------------------------
G|----14----14----14---------------------------------
D|---------------------------------------------------
A|---------------------------------------------------
E|---------------------------------------------------

F5(9)
  How can I decide what’s right,
Dm7(11)                       Am7   Am7(9)
  when you’re clouding up my mind?
                         C7M/E
I can’t win your losing fight.

All the time.

F5(9)
  Not gonna ever own what’s mine,
Dm7(11)                      Am7   Am7(9)
  when you’re always taking sides?
                             C7M/E
But you won’t take away my pride.
              F5(9)     Dm7(11)
No, not this time...
          Am7   C7M/E
Not this time.

(refrão)
F5(9)
  How did we get here,
Dm7(11)                    Am7     Am7(9)  C7M/E
  When I used to know you so well?
F5(9)
  But how did we get here!?
Dm7(11)             Am7  Am7(9)   C7M/E
  Well, I think I know.

( Am7  G4 )

(refrão - violão 2)

(parte e)
(1/2)
E|-------------------10-10---------------------------
B|-12----12----12------------------------------------
G|----11----11----11-------11------------------------
D|---------------------------------------------------
A|---------------------------------------------------
E|---------------------------------------------------

(2/2)
E|-------------------10------------------------------
B|-12----12----12------------------------------------
G|----11----11----11---------------------------------
D|---------------------------------------------------
A|---------------------------------------------------
E|---------------------------------------------------

(parte f - 2x)
(1/2)
E|-------------------14------------------------------
B|-12----12----12------------------------------------
G|----14----14----14---------------------------------
D|---------------------------------------------------
A|---------------------------------------------------
E|---------------------------------------------------

(2/2)
E|----12----12----12----12---------------------------
B|---------------------------------------------------
G|-14----14----14----14------------------------------
D|---------------------------------------------------
A|---------------------------------------------------
E|---------------------------------------------------

(parte g)
(1/2)
E|---------------------------------------------------
B|-12--------12--------12--------12------------------
G|------11--------11--------11--------11-------------
D|----0----0----0----0----0----0----0----0-----------
A|---------------------------------------------------
E|---------------------------------------------------

(2/2)
E|---------------------------------------------------
B|-10-------10-------10-------10---------------------
G|------6--------6--------6--------6-----------------
D|----0---0----0---0----0---0----0---0---------------
A|---------------------------------------------------
E|---------------------------------------------------

(segunda parte)
F5(9)                                Dm7(11)
  This truth is hiding in your eyes,
                          Am7  Am7(9)
and it's hanging on your tongue.
                     C7M/E
Just boiling in my blood,
                           F5(9)
but you think that I cant see.
                          Dm7(11)
What kind of man that you are?
                       Am7  Am7(9)
If you’re a man at all.
                            C7M/E
Well I will figure this one out
      F5(9)     Dm7(11)
on my own...
                            Am7  Am7(9)
 I'm screaming "I love you so"...
C7M/E
  But my thoughts you can't decode!

(repete refrão)

( F5(9) Dm7(11) Am7 C7M/E )

        F5(9)              Dm7(11)
Do you see what we’ve done?
                       Am7          C7M/E
We’re gonna make such fools of ourselves.
        F5(9)              Dm7(11)
Do you see what we’ve done?
                       Am7
We’re gonna make such fools
       F5(9)
of ourselves.

( F5(9) Dm7(11) Am7 C7M/E )

(refrão)

F5(9)
  How did we get here,
Dm7(11)                         Am7      C7M/E
  When I used to know you so well?
F5(9)
  How did we get here,
Dm7(11)                         Am7      C7M/E
  When I used to know you so well?

(final)
            F5(9)  Am7  F5(9)  C7M/E
I think I know
            F5(9)  Am7  F5(9)  C7M/E
I think I know
  F5(9)        Am7
There is  something
F5(9)      C7M/E
I  see in you
F5(9)         Am7
It might kill me
   F5(9)              C7M/E  F5(9)
I want it to be true

(solo)

(parte 1 - 2x)
E|-------------------------14------------------------
B|-14b15r14-12-14b15r14-12----12---------------------
G|---------------------------------------------------
D|---------------------------------------------------
A|---------------------------------------------------
E|---------------------------------------------------

(parte 2)
E|---------------------------------------------------
B|-14b15r14-12-12\10-10-10---------------------------
G|---------------------------------------------------
D|-------------------------9-10-14-------------------
A|---------------------------------------------------
E|---------------------------------------------------

(repete parte 1)
E|-------------------------14------------------------
B|-14b15r14-12-14b15r14-12----12---------------------
G|---------------------------------------------------
D|---------------------------------------------------
A|---------------------------------------------------
E|---------------------------------------------------

(parte 3)
E|-------------------17-19---------------------------
B|-14-14-14/15-15-15-------15------------------------
G|---------------------------------------------------
D|---------------------------------------------------
A|---------------------------------------------------
E|---------------------------------------------------

(terceira parte - violão 2)
E|-10-10---14---12---
B|-12-12---12---12---
G|-11-11---14---14---
D|-------------------
A|-------------------
E|-------------------
 ↓  ↓    ↓    ↓

(riff - violão base)
(parte 1)
E|---------------------------------------------------
B|---------------------------------------------------
G|-7-7-7-7-7-7--6-6-6-6--4-4-4--11-11-11-11--4-4-----
D|---------------------------------------------------
A|-5-5-5-5-5-5--4-4-4-4--2-2-2--9--9--9--9---2-2-----
E|---------------------------------------------------
 ↓ ↑ ↓ ↑ ↓ ↑  ↓ ↑ ↓ ↑  ↓ ↑ ↓  ↓  ↑  ↓  ↑   ↓ ↑

(parte 2)                                    (última vez)
E|--------------------------------------------|------
B|--------------------------------------------|------
G|-7-7-7-7--9-9-9--14-14-14-14-14-14-14-14-14-|-7-7-7
D|--------------------------------------------|------
A|-5-5-5-5--7-7-7--12-12-12-12-12-12-12-12-12-|-5-5-5
E|--------------------------------------------|------
 ↓ ↑ ↓ ↑  ↓ ↑ ↓  ↓  ↑  ↓  ↑  ↓  ↑  ↓  ↑  ↓    ↓ ↓ ↓

(riff- violão solo)
(parte 1)
E|---------------------------------------------------
B|---------------------------------------------------
G|---------------------------------------------------
D|-5-5-5-5-5-5--7-7-7-7-4-4-4--9-9-9-9---4-4---------
A|-5-5-5-5-5-5--7-7-7-7-4-4-4--9-9-9-9---4-4---------
E|-5-5-5-5-5-5--7-7-7-7-4-4-4--9-9-9-9---4-4---------
 ↓ ↑ ↓ ↑ ↓ ↑  ↓ ↑ ↓ ↑ ↓ ↑ ↓  ↓ ↑ ↓ ↑   ↓ ↑

(parte 2)
E|---------------------------------------------------
B|---------------------------------------------------
G|---------------------------------------------------
D|-5-5-5-5--9-9-9---4-4-4-4-4-4-4-4-4----------------
A|-5-5-5-5--9-9-9---4-4-4-4-4-4-4-4-4----------------
E|-5-5-5-5--9-9-9---4-4-4-4-4-4-4-4-4----------------
 ↓ ↑ ↓ ↑  ↓ ↑ ↓   ↓ ↑ ↓ ↑ ↓ ↑ ↓ ↑ ↓  ↓ ↓ ↓

(final - um toque a mais no E5 e três no D5)
E|---------------------------------------------------
B|---------------------------------------------------
G|---------------------------------------------------
D|-5-5-5-5--9-9-9---4-4-4-4-4-4-4-4-4-4-2-2-2--------
A|-5-5-5-5--9-9-9---4-4-4-4-4-4-4-4-4-4-2-2-2--------
E|-5-5-5-5--9-9-9---4-4-4-4-4-4-4-4-4-4-2-2-2--------
 ↓ ↑ ↓ ↑  ↓ ↑ ↓   ↓ ↑ ↓ ↑ ↓ ↑ ↓ ↑ ↓ ↑ ↓ ↓ ↓
Acordes para:
    Colaboração e revisão:
    • Leandro Sandim

    0 comentários

      mostrar mais comentários
      00:00 / 00:00
      outros vídeos desta música
      repetirqualidadeautomática
      Outro vídeos desta música
        00:00 / 00:00
        automática
        Capítulos
        • Início
        • Dicas iniciais
        • Dicas e acordes da música
        • Tocando introdução e primeira parte
        • Ensinando ritmo da introdução (base)
        • Ensinando introdução (violão 2 - parte A)
        • Ensinando introdução (violão 2 - parte B)
        • Ensinando introdução (violão 2 - parte C)
        • Ensinando introdução (violão 2 - parte D)
        • Acordes do refrão
        • Tocando refrão
        • Ensinando o ritmo do refrão
        • Ensinando refrão (violão 2 - parte E)
        • Ensinando refrão (violão 2 - parte F)
        • Ensinando refrão (violão 2 - parte G)
        • Tocando trecho (segunda parte - solo)
        • Ensinando solo (parte 1)
        • Ensinando solo (parte 2)
        • Ensinando solo (parte 3)
        • Tocando trecho da música (terceira parte - final)
        • Ensinando riff (violão base)
        • Ensinando terceira parte (violão 2)
        • Ensinando riff (violão 2)
        • Tocando a música
        • Encerramento
        • Extras
        OK