Cifra Club

Aprenda

Rin del angelito

Violeta Parra

Cifra: Principal (violão e guitarra)
tom: Em

 Em           B7                Em             B7                Em 
E|---------------------------------------------------------------------|
B|---------------------------------------------------------------------|
G|-------------------------------0---------------------------------0---|
D|---2-2-2---2--3-3---3-3-3-2-3----2---2-2-2---2--3-3---3-3-3-2-3----2-|
A|-2-------2--------2----------------2-------2--------2----------------|
E|---------------------------------------------------------------------|

 D7          G         B7        Em               G         B7        Em 
E|----------------------------------------------------------------------|
B|--------------0-0-0------------------------------0-0-0----------------|
G|-0-2-0-2-0-2--------2--0------------0-2-0-2-0-2--------2--0-----------|
D|-------------------------3-2-0--2-2-------------------------3-2-0--2-2|
A|----------------------------------------------------------------------|
E|----------------------------------------------------------------------|

abajo en una octava mas arriba
 Em           B7                Em             B7                Em 
E|---0-0-0---0--1-1---1-1-1-0-1--3-0---0-0-0---0--1-1---1-1-1-0----3-0-|
B|-0-------0--------0----------------0-------0--------0----------------|
G|---------------------------------------------------------------------|
D|---------------------------------------------------------------------|
A|---------------------------------------------------------------------|
E|---------------------------------------------------------------------|

 D7           G        B7        Em              G         B7        Em 
E|-3-5-3-5-3-5--7-7-7-5--3-1-0----0-0-3-5-3-5-3-5--7-7-7-5--3-1-0----0-0|
B|-----------------------------3----------------------------------3-----|
G|----------------------------------------------------------------------|
D|----------------------------------------------------------------------|
A|----------------------------------------------------------------------|
E|----------------------------------------------------------------------|
Composição de Violeta Parra
5 exibições
    • ½ Tom
    • Am
    • Bbm
    • Bm
    • Cm
    • C#m
    • Dm
    • Ebm
    • Em
    • Fm
    • F#m
    • Gm
    • G#m
  • Adicionar à lista

    0 comentários

    Ver todos os comentários

    Conseguiu tocar?

    0 Tocaram 0 Ainda não

    Grave um vídeo tocando Rin del angelito e nos envie!

    00:00 / 00:00
    Outros vídeos desta música
    Repetir Qualidade Automático
    Outros vídeos desta música
    00:00 / 00:00
    Automático

    Cifra Club Pro

    Aproveite o Cifra Club com benefícios exclusivos e sem anúncios
    Cifra Club Pro
    Aproveite o Cifra Club com benefícios exclusivos e sem anúncios
    OK