Cifra Club

Aprenda

Live To Win

Paul Stanley

Cifra: Principal (violão e guitarra)
tom: A
Afinação: E

Introdução e pré refrão

|------------------------------------------------------------------------------|
|------------------------------------------------------------------------------|
|3---------6-------------------------------------------------------------------|
|3---------6--------3----------------------------------------------------------|
|1---------4--------3----------------------------------------------------------|
|-------------------1----------------------------------------------------------|

Estrofes:

|------------------------------------------------------------------------------|
|------------------------------------------------------------------------------|
|3---------6-------------------------------------------------------------------|
|3---------6--------3----------------------------------------------------------|
|1---------4--------3----------------------------------------------------------|
|-------------------1----------------------------------------------------------|

Refrão
|-----------------------------------------------------------------------------------------|
|-----------------------------------------------------------------------------------------|
|6-6-6-6-6-6-6-6\8-8-8-8-8-8-8-8\10-10-10-10-10-10-10-10\12-12-12-12-12-12-12-12\13/12/10-|
|6-6-6-6-6-6-6-6\8-8-8-8-8-8-8-8\10-10-10-10-10-10-10-10\12-12-12-12-12-12-12-12\13/12/10-|
|4-4-4-4-4-4-4-4\6-6-6-6-6-6-6-6\8-8-8-8-8-8-8-8-8-8-8-8\10-10-10-10-10-10-10-10\11/10/8--|
|-----------------------------------------------------------------------------------------|

O solo e os riffs na gravação estão com Wha-Wha e não foram transcritos totalmente certos.
Mas você pode improvisar com isso

(Riff)

E|----------------------------
B|-10 10 10------------------
G|--------------------10 10 10
D|-----------13 13 13---------
A|----------------------------
E|----------------------------

(Solo)

E|---------------------------------------------------------
A|-------------------10/12b--12-10b-b----------------------
D|--------10/13-10/13----------------13-10-13-10-----------
G|-10/12----------------------------------------12-10-12-10
B|---------------------------------------------------------
E|---------------------------------------------------------
Composição de Paul Stanley
Colaboração e revisão:
  • Marcelo Fernando
3.752 exibições
    • ½ Tom
    • A
    • Bb
    • B
    • C
    • Db
    • D
    • Eb
    • E
    • F
    • F#
    • G
    • Ab
  • Adicionar à lista

    0 comentários

    Ver todos os comentários

    Conseguiu tocar?

    0 Tocaram 0 Ainda não

    Grave um vídeo tocando Live To Win e nos envie!

    00:00 / 00:00
    outros vídeos desta música
    repetir qualidade Automático
    Outros vídeos desta música
    00:00 / 00:00
    Automático

    Cifra Club Pro

    Aproveite o Cifra Club com benefícios exclusivos e sem anúncios
    Cifra Club Pro
    Aproveite o Cifra Club com benefícios exclusivos e sem anúncios
    OK