Cifra Club

Sensações

Paula Fernandes

Cifra: Principal
exibições 483.118
Tom: C (com acordes na forma de G) Capotraste na 5ª casa
(Dedilhado Introdução)
G5(9)  G5(9)/F#  C6(9) C9

Introdução - Parte 1 de 6

G5(9)
----------5------------------------------
-----3---------3-------------------------
---0----0----0----0----------------------
5----------------------------------------
-----------------------------------------
-----------------------------------------


Introdução - Parte 2 de 6

G5(9)/F#
----------5------------------------------
-----3---------3-------------------------
---0----0----0----0----------------------
4----------------------------------------
-----------------------------------------
-----------------------------------------


Introdução - Parte 3 de 6

C6(9)                C9
----------5----------3--------3--2p3p2-0-
-----3---------3-----3-----3--3----------
---0----0----0----0-----0----------------
-----------------------------------------
3--------------------3-------------------
-----------------------------------------


Introdução - Parte 4 de 6

G5(9)
----------5------------------------------
3----3---------3-------------------------
---0----0----0----0----------------------
5----------------------------------------
-----------------------------------------
-----------------------------------------


Introdução - Parte 5 de 6

G5(9)/F#
----------5------------------------------
-----3---------3-------------------------
---0----0----0----0----------------------
4----------------------------------------
-----------------------------------------
-----------------------------------------


Introdução - Parte 6 de 6

C6(9)                C9
----------5----------3--------3--2p3p2-0-
-----3---------3-----3-----3--3----------
---0----0----0----0-----0----------------
-----------------------------------------
3--------------------3-------------------
-----------------------------------------


(Primeira Parte)
G5(9)              D9/F#
      Eu me perdi,       perdi você
Em7                  C9
    Perdi a voz , o seu querer
G5(9)           D9/F#
      Agora sou       somente um
Em7                  C9
    Longe de nós um ser comum

(Segunda Parte)
Am7                     G/B
    Agora sou um vento só. a escuridão.
          C9
Eu virei pó, fotografia,
         D4          D   D4
Sou lembrança do passado
Am7                    G/B
    Agora sou a prova viva
                   C9
De que nada nessa vida
                       D4         D    D4
É pra sempre até que prove o contrário

(Dedilhado Primeira parte)

Primeira Parte - Parte 1 de 4

G5(9)
-----------------------------------------
----------3------------------------------
0----0---------0-------------------------
---0----0----0----0----------------------
-----------------------------------------
3----------------------------------------


Primeira Parte - Parte 2 de 4

D9/F#
-----------------------------------------
----------3------------------------------
2----2---------2-------------------------
---0----0----0----0----------------------
-----------------------------------------
2----------------------------------------


Primeira Parte - Parte 3 de 4

Em7
-----------------------------------------
----------3------------------------------
0----0---------0-------------------------
---2----2----2----2----------------------
-----------------------------------------
0----------------------------------------


Primeira Parte - Parte 4 de 4

C9
-----------------------------------------
----------3------------------------------
0----0---------0-------------------------
---2----2----2----2----------------------
3----------------------------------------
-----------------------------------------

(Refrão)
G5                 D9(11)/F#
      Estar assim,           sentir assim
Em7                         C9
    Turbilhão de sensações dentro de mim
G5                         D9(11)/F#
      Eu amanheço, eu estremeço, eu enlouqueço
         Em7
Eu te cavalgo embaixo do cair
     C9
Da chuva eu reconheço
G5                 D9(11)/F#
      Estar assim,           sentir assim
Em7                         C9
    Turbilhão de sensações dentro de mim
G5                          D9(11)/F#
      Eu me aqueço, eu endureço
                      Em7
Eu me derreto, eu evaporo
                      C9
Eu caio em forma de chuva eu reconheço
Eu me transformo

(Dedilhado Terceira Parte)
Am7  G/B  C9  D4  D

Terceira Parte - Parte 1 de 8

Am7
-----------------------------------------
---1--------0---------1--------0---------
---0--------0---------0--------0---------
------2--------2---------2--------2------
0--------0--------0---------0------------
-----------------------------------------


Terceira Parte - Parte 2 de 8

G6/B
-----------------------------------------
---3--------1---------3--------1---------
---0--------0---------0--------0---------
------2--------2---------2--------2------
2--------2--------2---------2------------
-----------------------------------------


Terceira Parte - Parte 3 de 8

C9
---0------------------0------------------
---3--------1---------3--------1---------
------0-----0------------0-----0---------
---------2-----2------------2-----2------
3-----------------3----------------------
-----------------------------------------


 Terceira Parte - Parte 4 de 8

D4                D
---3--------3---------2--------2---------
---3--------3---------3--------3---------
------2--------2---------2--------2------
0--------0--------0---------0------------
-----------------------------------------
-----------------------------------------



Terceira Parte - Parte 5 de 8

Am7
-----------------------------------------
---1--------0---------1--------0---------
---0--------0---------0--------0---------
------2--------2---------2--------2------
0--------0--------0---------0------------
-----------------------------------------


Terceira Parte - Parte 6 de 8

G6/B
-----------------------------------------
---3--------1---------3--------1---------
---0--------0---------0--------0---------
------2--------2---------2--------2------
2--------2--------2---------2------------
-----------------------------------------


Terceira Parte - Parte 7 de 8

C9
---0--------0----------------------------
---3--------1----------------------------
------0--------0-------------------------
---------2-------------------------------
3----------------------------------------
-----------------------------------------


 Terceira Parte - Parte 8 de 8

-----------------------------------------
5-----7-----8-----7----------------------
0-----0-----0-----0----------------------
-----------------------------------------
3-----5-----7-----5----------------------
-----------------------------------------


(Dedilhado Introdução)

(Segunda Parte
Am7                     G/B
    Agora sou um vento só. a escuridão.
          C9
Eu virei pó, fotografia,
         D4          D   D4
Sou lembrança do passado
Am7                    G/B
    Agora sou a prova viva
                   C9
De que nada nessa vida
                       D4         D    D4
É pra sempre até que prove o contrário
A5(9)          A   E/G#
      Estar assim,      sentir assim

F#m7                             D5(9)
     Turbilhão de sensações dentro de mim
A5(9)         A           E/G#
      Eu amanheço, eu estremeço, eu enlouqueço
         F#m7
Eu te cavalgo embaixo do cair
     D5(9)
Da chuva eu reconheço
A5(9)          A  E/G#
      Estar assim,     sentir assim
F#m7                             D5(9)
     Turbilhão de sensações dentro de mim
A5(9)          A  E/G#      E/G#
      Eu me aqueço, eu endureço
                      F#m7
Eu me derreto, eu evaporo
                      D5(9)
Eu caio em forma de chuva  eu reconheço
Acordes para:

    0 comentários

      mostrar mais comentários

      Conseguiu tocar?

      61tocaram0ainda não

      Grave um vídeo tocando Sensações e mande pra gente!

      00:00 / 00:00
      outros vídeos desta música
      repetirqualidadeautomática
      Outro vídeos desta música
        00:00 / 00:00
        automática
        Capítulos
        • Início
        • Tocando a música
        • Acordes da Introdução
        • Tocando a Introdução
        • Ensinando a Introdução
        • Acordes da Primeira e Segunda partes
        • Tocando a Primeira e Segunda partes
        • Dedilhado da Primeira Parte
        • Ensinando Segunda Parte
        • Acordes do Refrão
        • Tocando o Refrão
        • Ensinando o Refrão
        • Acordes das Repetições e Parte Final
        • Tocando as Repetições e Parte Final
        • Encerramento
        OK