Cifra Club

Sem dizer adeus

Paulinho Moska

Cifra: Principal (violão e guitarra)
tom: D
    A9                 F#    D9      D     E11  E
E|---7------5----4------2-----0------2--------------
B|---5------5----5------2-----3------3--------------
G|----------------------3-----2------2------3---2---
D|----------------------4-----0---0---------3---3---
A|---0---0----------------------------------3---3---
E|---------------5--------------------------0---0---



A9    F#m11
Eu
               D9                  E11         A9   F#m11
Chorei até ficar debaixo d'água, submerso por você
                D9              E11                   F#m11
Gritei até perder o ar que eu já nem tinha pra sobreviver
B7   E7sus4  E7
(Eu andei...)
A9  F#m11
Eu
                 D9          E11              A9   F#m11
Andei até chegar no último lugar pisado por alguém
                      D9          E11                  F#m11
Só pra poder provar o que era estar depois do final do além
B7    E7sus4  E7
(Eu andei...)
        F#m11          B7                  Abm7/b5
E cheguei exatamente onde algum dia
Db7/b9               F#m11  A9/E             B/Eb       Dm6
Você disse que partia         pra nunca mais voltar
               A/Db   Cdim7         Bm7          E11   A9
E eu já estava lá    a te esperar sem dizer adeus
(intro)
A9  F#m11
Eu
                D9           E11                         A9
Fiquei sozinho até pensar que estar sozinho é achar que tem
F#m11
alguém
              D9              E11              F#m11
Já me esqueci do que não fiz e o que farei pra te esquecer também?
B7  E7sus4  E7   A9  F#m11                    D9
Se   eu                não sei         o nome do que sinto
             E11                 A9    F#m11
Não tem nome que domine o meu querer
                 D9                     E11          F#m11
Não vou voltar atrás, o chão sumiu a cada passo que eu dei
B7  E7sus4 E7
(Andei...)
F#m11     B7                      Abm7/b5
E cheguei exatamente onde algum dia
Db7/b9            F#m11  A9/E             B/Eb        Dm6
Você disse que partia       pra nunca mais voltar
        A/Db      Cdim7   Bm7       E11    G6(9) A9 G6(9) A9
E eu já estava lá    a te esperar sem dizer adeus

 B7                           F#m11
                            
E|---2-------              E|---x-------
B|---0-------              B|---0-------           
G|---2-------              G|---3-------
D|---1-------              D|---4-------            
A|---2-------              A|---4-------
E|-----------              E|---2-------    


 E7sus4                      E7
                            
E|---x-------              E|----x------
B|---0-------              B|----0------            
G|---2-------              G|----1------
D|---0-------              D|----0------           
A|---2-------              A|----2------ 
E|---0-------              E|----0------    

 Abm7/b5                     Db7/b9
                         
E|---x-------              E|-----------
B|---3-------              B|----3------            
G|---4-------              G|----4------
D|---4-------              D|----3------            
A|---x-------              A|----4------
E|---4-------              E|-----------    

  A9/E                        B/Eb 

E|-----------              E|----7------
B|---0-------              B|----7------            
G|---2-------              G|----4------
D|---2-------              D|-----------            
A|---x-------              A|----6------
E|---0-------              E|-----------    

  Dm6                        A/Db 

E|---5-------              E|----5------
B|---6-------              B|----5------            
G|---4-------              G|----2------
D|-----------              D|-----------            
A|---5-------              A|----4------
E|-----------              E|-----------    

  Cm7                         Bm7

E|---3-------              E|----2------
B|---4-------              B|----3------            
G|---3-------              G|----2------
D|---5-------              D|----4------            
A|---3-------              A|----2------
E|-----------              E|-----------
  G6(9)

E|---5-------
B|---5-------
G|---4-------
D|---5-------
A|-----------
E|-----------
00:00 / 00:00
Outros vídeos desta música
Repetir
Outros vídeos desta música
Composição de Paulinho Moska
Colaboração e revisão:
  • Carlos Costa
23.368 exibições
    • ½ Tom
    • A
    • Bb
    • B
    • C
    • Db
    • D
    • Eb
    • E
    • F
    • F#
    • G
    • Ab
  • Adicionar à lista

    0 comentários

    Ver todos os comentários

    Entre para oCifra Club PRO

    Tenha acesso a benefícios exclusivos no App e no Site

    • Chega de anúncios

    • Prioridade de compra em lançamentos

    • Mais recursos no app do Afinador

    • Atendimento Prioritário

    • Descontos nos produtos Cifra Club

    • Ajude a produzir mais conteúdo

    00:00 / 00:00

    Cifra Club Pro

    Aproveite o Cifra Club com benefícios exclusivos e sem anúncios
    Cifra Club Pro
    Aproveite o Cifra Club com benefícios exclusivos e sem anúncios
    OK