Cifra Club

Army Reserve

Pearl Jam

Cifra: Principal (violão e guitarra)
tom: C
s = slide                                     G1: Eddie Vedder
~ = vibrato                                   G2 & G4: Stone Gossard
h = hammer on                                 G3: Mike McCready
p = pull off
/X = slide crescente até a nota X
X/ = slide decrescente partindo da nota X

INTRO:

G1:
e|----------------------------------------------------------|---------------------------------|
B|----------------------------------------------------------|---------------------------------|
G|-9--9-9-9-9-9--9-9-9-9-9--9-9-9-9-9--9-9-9-9-9--9-9-9-9-9-|-6-6-6-6-6--6-6-6-6-6--6-6-6-6-6-|
D|-9--9-9-9-9-9--9-9-9-9-9--9-9-9-9-9--9-9-9-9-9--9-9-9-9-9-|-7-7-7-7-7--7-7-7-7-7--7-7-7-7-7-|
A|-7--7-7-7-7-7--7-7-7-7-7--7-7-7-7-7--7-7-7-7-7--7-7-7-7-7-|-7-7-7-7-7--7-7-7-7-7--7-7-7-7-7-|
E|----------------------------------------------------------|---------------------------------|

G2:
e|----------------------------------------------------------|---------------------------------|
B|-7--7-7-7-7-7--7-7-7-7-7--7-7-7-7-7--7-7-7-7-7--7-7-7-7-7-|-5-5-5-5-5--5-5-5-5-5--5-5-5-5-5-|
G|-7--7-7-7-7-7--7-7-7-7-7--7-7-7-7-7--7-7-7-7-7--7-7-7-7-7-|-6-6-6-6-6--6-6-6-6-6--6-6-6-6-6-|
D|-9--9-9-9-9-9--9-9-9-9-9--9-9-9-9-9--9-9-9-9-9--9-9-9-9-9-|-7-7-7-7-7--7-7-7-7-7--7-7-7-7-7-|
A|----------------------------------------------------------|---------------------------------|
E|----------------------------------------------------------|---------------------------------|

G3:
e|----------------------------------------------------------|-12-12-12-10-10-10-10------------|
B|----------------------------------------------------------|---------------------------------|
G|----------------------------------------------------------|---------------------------------|
D|----------------------------------------------------------|---------------------------------|
A|----------------------------------------------------------|---------------------------------|
E|----------------------------------------------------------|---------------------------------|

G1:
e|---------------------------------|---------------------------------|
B|---------------------------------|---------------------------------|
G|-9-9-9-9-9--9-9-9-9-9--9-9-9-9-9-|-4-4-4-4-4--4-4-4-4-4--4-4-4-4-4-|
D|-9-9-9-9-9--9-9-9-9-9--9-9-9-9-9-|-5-5-5-5-5--5-5-5-5-5--5-5-5-5-5-|
A|-7-7-7-7-7--7-7-7-7-7--7-7-7-7-7-|-5-5-5-5-5--5-5-5-5-5--5-5-5-5-5-|
E|---------------------------------|-3-3-3-3-3--3-3-3-3-3--3-3-3-3-3-|

G2:
e|---------------------------------|---------------------------------|
B|-7-7-7-7-7--7-7-7-7-7--7-7-7-7-7-|-6-6-6-6-6--6-6-6-6-6--6-6-6-6-6-|
G|-7-7-7-7-7--7-7-7-7-7--7-7-7-7-7-|-7-7-7-7-7--7-7-7-7-7--7-7-7-7-7-|
D|-9-9-9-9-9--9-9-9-9-9--9-9-9-9-9-|-5-5-5-5-5--5-5-5-5-5--5-5-5-5-5-|
A|---------------------------------|---------------------------------|
E|---------------------------------|---------------------------------|

G3:
e|---------------------------------|---------------------------------|
B|---------------------------------|-10-10-10h12~--------------------|
G|---------------------------------|---------------------------------|
D|---------------------------------|---------------------------------|
A|---------------------------------|---------------------------------|
E|---------------------------------|---------------------------------|

PARTE 1:

G1:
e|----------------------|----------------------|----------------------|----------------------|
B|----------------------|----------------------|----------------------|----------------------|
G|-7-7-7-7-7--7-7-7-7-7-|-6-6-6-6-6--6-6-6-6-6-|-4-4-4-4-4--4-4-4-4-4-|-4-4-4-4-4--4-4-4-4-4-|
D|-9-9-9-9-9--9-9-9-9-9-|-7-7-7-7-7--7-7-7-7-7-|-5-5-5-5-5--5-5-5-5-5-|-5-5-5-5-5--5-5-5-5-5-|
A|-9-9-9-9-9--9-9-9-9-9-|-7-7-7-7-7--7-7-7-7-7-|-5-5-5-5-5--5-5-5-5-5-|-5-5-5-5-5--5-5-5-5-5-|
E|-7-7-7-7-7--7-7-7-7-7-|-5-5-5-5-5--5-5-5-5-5-|-3-3-3-3-3--3-3-3-3-3-|-3-3-3-3-3--3-3-3-3-3-|

G2:
e|----------------------|----------------------|----------------------|----------------------|
B|-7-7-7-7-7--7-7-7-7-7-|-5-5-5-5-5--5-5-5-5-5-|-6-6-6-6-6--6-6-6-6-6-|-6-6-6-6-6--6-6-6-6-6-|
G|-7-7-7-7-7--7-7-7-7-7-|-6-6-6-6-6--6-6-6-6-6-|-7-7-7-7-7--7-7-7-7-7-|-7-7-7-7-7--7-7-7-7-7-|
D|-9-9-9-9-9--9-9-9-9-9-|-7-7-7-7-7--7-7-7-7-7-|-5-5-5-5-5--5-5-5-5-5-|-5-5-5-5-5--5-5-5-5-5-|
A|----------------------|----------------------|----------------------|----------------------|
E|----------------------|----------------------|----------------------|----------------------|

G3:
e|----------------------|-12-12-12-10----------|----------------------|----------------------|
B|----------------------|-------------12~------|----------------------|----------------------|
G|----------------------|----------------------|----------------------|----------------------|
D|----------------------|----------------------|----------------------|----------------------|
A|----------------------|----------------------|----------------------|----------------------|
E|----------------------|----------------------|----------------------|----------------------|

G1:
e|----------------------|----------------------|----------------------|----------------------|
B|----------------------|----------------------|----------------------|----------------------|
G|-7-7-7-7-7--7-7-7-7-7-|-6-6-6-6-6--6-6-6-6-6-|-4-4-4-4-4--4-4-4-4-4-|-4-4-4-4-4--4-4-4-4-4-|
D|-9-9-9-9-9--9-9-9-9-9-|-7-7-7-7-7--7-7-7-7-7-|-5-5-5-5-5--5-5-5-5-5-|-5-5-5-5-5--5-5-5-5-5-|
A|-9-9-9-9-9--9-9-9-9-9-|-7-7-7-7-7--7-7-7-7-7-|-5-5-5-5-5--5-5-5-5-5-|-5-5-5-5-5--5-5-5-5-5-|
E|-7-7-7-7-7--7-7-7-7-7-|-5-5-5-5-5--5-5-5-5-5-|-3-3-3-3-3--3-3-3-3-3-|-3-3-3-3-3--3-3-3-3-3-|

G2:
e|----------------------|----------------------|----------------------|----------------------|
B|-7-7-7-7-7--7-7-7-7-7-|-5-5-5-5-5--5-5-5-5-5-|-6-6-6-6-6--6-6-6-6-6-|-6-6-6-6-6--6-6-6-6-6-|
G|-7-7-7-7-7--7-7-7-7-7-|-6-6-6-6-6--6-6-6-6-6-|-7-7-7-7-7--7-7-7-7-7-|-7-7-7-7-7--7-7-7-7-7-|
D|-9-9-9-9-9--9-9-9-9-9-|-7-7-7-7-7--7-7-7-7-7-|-5-5-5-5-5--5-5-5-5-5-|-5-5-5-5-5--5-5-5-5-5-|
A|----------------------|----------------------|----------------------|----------------------|
E|----------------------|----------------------|----------------------|----------------------|

G3:
e|-12--14---------------|----------------------|----------------------|-------------10-10----|
B|----------------------|----------------------|----------------------|-------------------12-|
G|----------------------|---11--9--------11--9-|----------------------|----------------------|
D|----------------------|----------------------|----------------------|----------------------|
A|----------------------|----------------------|----------------------|----------------------|
E|----------------------|----------------------|----------------------|----------------------|

G1:
e|----------------------|----------------------|----------------------|----------------------|
B|----------------------|----------------------|----------------------|----------------------|
G|-7-7-7-7-7--7-7-7-7-7-|-6-6-6-6-6--6-6-6-6-6-|-4-4-4-4-4--4-4-4-4-4-|-4-4-4-4-4--4-4-4-4-4-|
D|-9-9-9-9-9--9-9-9-9-9-|-7-7-7-7-7--7-7-7-7-7-|-5-5-5-5-5--5-5-5-5-5-|-5-5-5-5-5--5-5-5-5-5-|
A|-9-9-9-9-9--9-9-9-9-9-|-7-7-7-7-7--7-7-7-7-7-|-5-5-5-5-5--5-5-5-5-5-|-5-5-5-5-5--5-5-5-5-5-|
E|-7-7-7-7-7--7-7-7-7-7-|-5-5-5-5-5--5-5-5-5-5-|-3-3-3-3-3--3-3-3-3-3-|-3-3-3-3-3--3-3-3-3-3-|

G2:
e|----------------------|----------------------|----------------------|----------------------|
B|-7-7-7-7-7--7-7-7-7-7-|-5-5-5-5-5--5-5-5-5-5-|-6-6-6-6-6--6-6-6-6-6-|-6-6-6-6-6--6-6-6-6-6-|
G|-7-7-7-7-7--7-7-7-7-7-|-6-6-6-6-6--6-6-6-6-6-|-7-7-7-7-7--7-7-7-7-7-|-7-7-7-7-7--7-7-7-7-7-|
D|-9-9-9-9-9--9-9-9-9-9-|-7-7-7-7-7--7-7-7-7-7-|-5-5-5-5-5--5-5-5-5-5-|-5-5-5-5-5--5-5-5-5-5-|
A|----------------------|----------------------|----------------------|----------------------|
E|----------------------|----------------------|----------------------|----------------------|

G3:
e|----------------------|----------------------|----------------------|----------------------|
B|----------------------|-------------10-10-10-|-10-10h12-------------|----------------------|
G|----------------------|----------------------|----------------------|----------------------|
D|----------------------|----------------------|----------------------|----------------------|
A|----------------------|----------------------|----------------------|----------------------|
E|----------------------|----------------------|----------------------|----------------------|

REFRÃO:

G1:
 (                             2X                               )
e|--------------------------------------------------------------|
B|--------------------------------------------------------------|
G|------9---10----------12-----------------------------------12-|
D|-12---9---10----------12---------12---------12----9----10--12-|
A|-12---7----8----------10---9-----12---------12----7-----8--10-|
E|-10------------------------------10---10-10-10----------------|

G2:
 (                             2X                               )
e|--------------------------------------------------------------|
B|--------------------------------------------------------------|
G|-7----9---10---10--10-12---------7-----------7----9----10--12-|
D|-0----x----x----x---x--x---------0----0--0---0----x-----x---x-|
A|-5----7----8----8---8-10---------5----5--5---5----7-----8--10-|
E|--------------------------------------------------------------|

G3:
 (                             2X                               )
e|--------------------------------------------------------------|
B|--------------------------------------------------------------|
G|-7---9---10------12--11-12-12p11s7----7---9---10--12--11-12-12|
D|--------------------------------------------------------------|
A|--------------------------------------------------------------|
E|--------------------------------------------------------------|

PÓS-REFRÃO:

G1:
e|----------------------------|
B|----------------------------|
G|-9--9-9---9-9-9-9----9--9-9-|
D|-9--9-9---9-9-9-9----9--9-9-|
A|-x--x-x---x-x-x-x----x--x-x-|
E|-7--7-7---7-7-7-7----7--7-7-|

G2:
e|----------------------------|
B|-7--7-7---7-7-7-7----7--7-7-|
G|-7--7-7---7-7-7-7----7--7-7-|
D|-9--9-9---9-9-9-9----9--9-9-|
A|----------------------------|
E|----------------------------|

G3:
e|----------------------------|
B|----------------------------|
G|-11-------------------------|
D|----------------------------|
A|----------------------------|
E|----------------------------|

PARTE 2:

G1:
e|----------------------|----------------------|----------------------|----------------------|
B|----------------------|----------------------|----------------------|----------------------|
G|-7-7-7-7-7--7-7-7-7-7-|-6-6-6-6-6--6-6-6-6-6-|-4-4-4-4-4--4-4-4-4-4-|-4-4-4-4-4--4-4-4-4-4-|
D|-9-9-9-9-9--9-9-9-9-9-|-7-7-7-7-7--7-7-7-7-7-|-5-5-5-5-5--5-5-5-5-5-|-5-5-5-5-5--5-5-5-5-5-|
A|-9-9-9-9-9--9-9-9-9-9-|-7-7-7-7-7--7-7-7-7-7-|-5-5-5-5-5--5-5-5-5-5-|-5-5-5-5-5--5-5-5-5-5-|
E|-7-7-7-7-7--7-7-7-7-7-|-5-5-5-5-5--5-5-5-5-5-|-3-3-3-3-3--3-3-3-3-3-|-3-3-3-3-3--3-3-3-3-3-|

G2:
e|----------------------|----------------------|----------------------|----------------------|
B|-7-7-7-7-7--7-7-7-7-7-|-5-5-5-5-5--5-5-5-5-5-|-6-6-6-6-6--6-6-6-6-6-|-6-6-6-6-6--6-6-6-6-6-|
G|-7-7-7-7-7--7-7-7-7-7-|-6-6-6-6-6--6-6-6-6-6-|-7-7-7-7-7--7-7-7-7-7-|-7-7-7-7-7--7-7-7-7-7-|
D|-9-9-9-9-9--9-9-9-9-9-|-7-7-7-7-7--7-7-7-7-7-|-5-5-5-5-5--5-5-5-5-5-|-5-5-5-5-5--5-5-5-5-5-|
A|----------------------|----------------------|----------------------|----------------------|
E|----------------------|----------------------|----------------------|----------------------|

G3:
e|----------------------|----------10-10-12-10-|----10----------------|----------------------|
B|----------------------|----------------------|-12----12-------------|---------10-----------|
G|----------------------|----------------------|----------------------|-------------12-12-12-|
D|----------------------|----------------------|----------------------|----------------------|
A|----------------------|----------------------|----------------------|----------------------|
E|----------------------|----------------------|----------------------|----------------------|

G1:
e|----------------------|----------------------|----------------------|----------------------|
B|----------------------|----------------------|----------------------|----------------------|
G|-7-7-7-7-7--7-7-7-7-7-|-6-6-6-6-6--6-6-6-6-6-|-4-4-4-4-4--4-4-4-4-4-|-4-4-4-4-4--4-4-4-4-4-|
D|-9-9-9-9-9--9-9-9-9-9-|-7-7-7-7-7--7-7-7-7-7-|-5-5-5-5-5--5-5-5-5-5-|-5-5-5-5-5--5-5-5-5-5-|
A|-9-9-9-9-9--9-9-9-9-9-|-7-7-7-7-7--7-7-7-7-7-|-5-5-5-5-5--5-5-5-5-5-|-5-5-5-5-5--5-5-5-5-5-|
E|-7-7-7-7-7--7-7-7-7-7-|-5-5-5-5-5--5-5-5-5-5-|-3-3-3-3-3--3-3-3-3-3-|-3-3-3-3-3--3-3-3-3-3-|

G2:
e|----------------------|----------------------|----------------------|----------------------|
B|-7-7-7-7-7--7-7-7-7-7-|-5-5-5-5-5--5-5-5-5-5-|-6-6-6-6-6--6-6-6-6-6-|-6-6-6-6-6--6-6-6-6-6-|
G|-7-7-7-7-7--7-7-7-7-7-|-6-6-6-6-6--6-6-6-6-6-|-7-7-7-7-7--7-7-7-7-7-|-7-7-7-7-7--7-7-7-7-7-|
D|-9-9-9-9-9--9-9-9-9-9-|-7-7-7-7-7--7-7-7-7-7-|-5-5-5-5-5--5-5-5-5-5-|-5-5-5-5-5--5-5-5-5-5-|
A|----------------------|----------------------|----------------------|----------------------|
E|----------------------|----------------------|----------------------|----------------------|

G3:
e|----------------------|----------------------|----------------------|----------------------|
B|----------------------|----------------------|----------------------|----------------------|
G|-11-9--/12-12-12-11-9-|----------------------|----------------------|----------------------|
D|----------------------|----------------------|----------------------|----------------------|
A|----------------------|----------------------|----------------------|----------------------|
E|----------------------|----------------------|----------------------|----------------------|

G1:
e|----------------------|----------------------|----------------------|----------------------|
B|----------------------|----------------------|----------------------|----------------------|
G|-7-7-7-7-7--7-7-7-7-7-|-6-6-6-6-6--6-6-6-6-6-|-4-4-4-4-4--4-4-4-4-4-|-4-4-4-4-4--4-4-4-4-4-|
D|-9-9-9-9-9--9-9-9-9-9-|-7-7-7-7-7--7-7-7-7-7-|-5-5-5-5-5--5-5-5-5-5-|-5-5-5-5-5--5-5-5-5-5-|
A|-9-9-9-9-9--9-9-9-9-9-|-7-7-7-7-7--7-7-7-7-7-|-5-5-5-5-5--5-5-5-5-5-|-5-5-5-5-5--5-5-5-5-5-|
E|-7-7-7-7-7--7-7-7-7-7-|-5-5-5-5-5--5-5-5-5-5-|-3-3-3-3-3--3-3-3-3-3-|-3-3-3-3-3--3-3-3-3-3-|

G2:
e|----------------------|----------------------|----------------------|----------------------|
B|-7-7-7-7-7--7-7-7-7-7-|-5-5-5-5-5--5-5-5-5-5-|-6-6-6-6-6--6-6-6-6-6-|-6-6-6-6-6--6-6-6-6-6-|
G|-7-7-7-7-7--7-7-7-7-7-|-6-6-6-6-6--6-6-6-6-6-|-7-7-7-7-7--7-7-7-7-7-|-7-7-7-7-7--7-7-7-7-7-|
D|-9-9-9-9-9--9-9-9-9-9-|-7-7-7-7-7--7-7-7-7-7-|-5-5-5-5-5--5-5-5-5-5-|-5-5-5-5-5--5-5-5-5-5-|
A|----------------------|----------------------|----------------------|----------------------|
E|----------------------|----------------------|----------------------|----------------------|

G3:
e|----------------------|----------------------|----------------------|----------------------|
B|----------------------|----------------------|----------------------|----------------------|
G|----------------------|----------------------|----------------------|----------------------|
D|----------------------|----------------------|----------------------|----------------------|
A|----------------------|----------------------|----------------------|----------------------|
E|----------------------|----------------------|----------------------|----------------------|

G1:
e|----------------------|----------------------|----------------------|----------------------|
B|----------------------|----------------------|----------------------|----------------------|
G|-7-7-7-7-7--7-7-7-7-7-|-6-6-6-6-6--6-6-6-6-6-|-4-4-4-4-4--4-4-4-4-4-|-4-4-4-4-4--4-4-4-4-4-|
D|-9-9-9-9-9--9-9-9-9-9-|-7-7-7-7-7--7-7-7-7-7-|-5-5-5-5-5--5-5-5-5-5-|-5-5-5-5-5--5-5-5-5-5-|
A|-9-9-9-9-9--9-9-9-9-9-|-7-7-7-7-7--7-7-7-7-7-|-5-5-5-5-5--5-5-5-5-5-|-5-5-5-5-5--5-5-5-5-5-|
E|-7-7-7-7-7--7-7-7-7-7-|-5-5-5-5-5--5-5-5-5-5-|-3-3-3-3-3--3-3-3-3-3-|-3-3-3-3-3--3-3-3-3-3-|

G2:
e|----------------------|----------------------|----------------------|----------------------|
B|-7-7-7-7-7--7-7-7-7-7-|-5-5-5-5-5--5-5-5-5-5-|-6-6-6-6-6--6-6-6-6-6-|-6-6-6-6-6--6-6-6-6-6-|
G|-7-7-7-7-7--7-7-7-7-7-|-6-6-6-6-6--6-6-6-6-6-|-7-7-7-7-7--7-7-7-7-7-|-7-7-7-7-7--7-7-7-7-7-|
D|-9-9-9-9-9--9-9-9-9-9-|-7-7-7-7-7--7-7-7-7-7-|-5-5-5-5-5--5-5-5-5-5-|-5-5-5-5-5--5-5-5-5-5-|
A|----------------------|----------------------|----------------------|----------------------|
E|----------------------|----------------------|----------------------|----------------------|

G3:
e|----------------------|-10-10----------------|----------------------|----------------------|
B|----------------------|--------12----------8-|-8-------------8--10--|----------------------|
G|----------------------|----------------------|----------------------|----------------------|
D|----------------------|----------------------|----------------------|----------------------|
A|----------------------|----------------------|----------------------|----------------------|
E|----------------------|----------------------|----------------------|----------------------|


REFRÃO

PARTE 4:

G1:(Repete até o fim)
e|-------------------------------------------------------------|
B|-------------------------------------------------------------|
G|-9-9-9-9-9--9-9-9-9-9--9-9-9-9-9--9-9-9-9-9-9--9-9-9-9-9-9-9-|
D|-9-9-9-9-9--9-9-9-9-9--9-9-9-9-9--9-9-9-9-9-9--9-9-9-9-9-9-9-|
A|-x-x-x-x-x--x-x-x-x-x--x-x-x-x-x--x-x-x-x-x-x--x-x-x-x-x-x-x-|
E|-7-7-7-7-7--7-7-7-7-7--7-7-7-7-7--7-7-7-7-7-7--7-7-7-7-7-7-7-|

G2:(Repete até o fim)
e|-------------------------------------------------------------|
B|-7-7-7-7-7--7-7-7-7-7--7-7-7-7-7--7-7-7-7-7-7--7-7-7-7-7-7-7-|
G|-7-7-7-7-7--7-7-7-7-7--7-7-7-7-7--7-7-7-7-7-7--7-7-7-7-7-7-7-|
D|-9-9-9-9-9--9-9-9-9-9--9-9-9-9-9--9-9-9-9-9-9--9-9-9-9-9-9-9-|
A|-------------------------------------------------------------|
E|-------------------------------------------------------------|

G3:
e|-------------------------------------------------------------|
B|-------------------------------------------------------------|
G|---------------12-12--12-12---12-11--------------12-12--11---|
D|-------------------------------------------------------------|
A|-------------------------------------------------------------|
E|-------------------------------------------------------------|

G4:
e|-------------------------------------------------------------|
B|-------------------------------------------------------------|
G|-------------------------------------------------------------|
D|-------------------------------------------------------------|
A|-9--9--7-9-9-------10-9--7-7s9--------7-7-7-7-9-10-9-9\--7-7-|
E|-7--7-----------7---------------7---7------------------------|

G3:
e|-------------------------------------------------------------|
B|-------------------------------------------------------------|
G|-12-12--11---9-----12-12-12--11----11---12----14~~---12---11-|
D|-------------------------------------------------------------|
A|-------------------------------------------------------------|
E|-------------------------------------------------------------|

G4:
e|-------------------------------------------------------------------------|
B|-------------------------------------------------------------------------|
G|-------------------------------------------------------------------------|
D|-------------------------------------------------------------------------|
A|-7h9--10-9-9--9-9-7-9h10-9h10--9-9-9--9-9-9---------7---9--9-9-9-9-9-7-9-|
E|--------------------------------------------7-7-7-7---7------------------|

G3:
e|----------------------------------------------------------------------------|
B|--------------------------------------------12--------12-13---15------------|
G|------11-11--11-11-11-12-14-12----12--11------------------------------------|
D|----------------------------------------------------------------------------|
A|----------------------------------------------------------------------------|
E|----------------------------------------------------------------------------|

G4:
e|----------------------------------------------------------------------------|
B|----------------------------------------------------------------------------|
G|----------------------------------------------------------------------------|
D|----------------------------------------------------------------------------|
A|-10-------------------------10-10-10-9-7-9---10-9-10-9-7--9-9-9-9-9-7-7-9---|
E|----------------------------------------------------------------------------|

G3:
e|----------------------------------------------------------------------------|
B|-----15---15----15---15----15----/17------------17----15h17----/19--19------|
G|----------------------------------------------------------------------------|
D|----------------------------------------------------------------------------|
A|----------------------------------------------------------------------------|
E|----------------------------------------------------------------------------|

G4:
e|----------------------------------------------------------------------------|
B|----------------------------------------------------------------------------|
G|----------------------------------------------------------------------------|
D|----------------------------------------------------------------------------|
A|-9-9-9-9-9---9--9s10-9---9--9h10-9-7-7h9------------------------------------|
E|----------------------------------------------------------------------------|

G3:
e|----------------------------------------------------------------------------|
B|--17--15--19-19--17-15--17--19--20--19--------------------------------------|
G|----------------------------------------------------------------------------|
D|----------------------------------------------------------------------------|
A|----------------------------------------------------------------------------|
E|----------------------------------------------------------------------------|
00:00 / 00:00
Outros vídeos desta música
Repetir
Outros vídeos desta música
Composição de Damien Echols / Eddie Vedder / Jeff Ament
Colaboração e revisão:
  • João Vidal
6.204 exibições
    • ½ Tom
    • A
    • Bb
    • B
    • C
    • Db
    • D
    • Eb
    • E
    • F
    • F#
    • G
    • Ab
  • Adicionar à lista

    0 comentários

    Ver todos os comentários

    Conseguiu tocar?

    0 Tocaram 0 Ainda não

    Grave um vídeo tocando Army Reserve e nos envie!

    Entre para oCifra Club PRO

    Tenha acesso a benefícios exclusivos no App e no Site

    • Chega de anúncios

    • Prioridade de compra em lançamentos

    • Mais recursos no app do Afinador

    • Atendimento Prioritário

    • Descontos nos produtos Cifra Club

    • Ajude a produzir mais conteúdo

    00:00 / 00:00

    Cifra Club Pro

    Aproveite o Cifra Club com benefícios exclusivos e sem anúncios
    Cifra Club Pro
    Aproveite o Cifra Club com benefícios exclusivos e sem anúncios
    OK