Cifra Club

Buckle Up

Pearl Jam

Cifra: Principal (violão e guitarra)
tom: C
[Intro] F  G  F  C
        F  G  F  C 

[Riff]
 
E|------------------------------------------|
B|------------------------------------------|
G|--------2--------4--------2--------0------|
D|-----3--------5--------3------------------|
A|--3--------5--------3-----------3---------|
E|-----------------------------3------------|
 
E|------------------------------------------|
B|------------------------------------------|
G|--------2--------4--------2---------------|
D|-----3--------5--------3-----------0------|
A|--3--------5--------3-----------3---------|
E|------------------------------------------|
 
[Primeira Parte]

C
I got blood
 
Blood on my hands
 
The stain of
 
Of a human
 
I finally awoke
 
To my mother's wrath
 
Call lights
 
Bed sores and sponge baths
 
[Pré-Refrão]

F
Firstly do no harm
                        C
Then put your seatbelt on
 
[Refrão]

        G  C
Buckle up
        G  C
Buckle up
 
[Segunda Parte]

            C
The drapes pull back
 
Reveal her wound
 
Her boy on her lap
 
A murderer groomed

( F )
 
[Terceira Parte]

            C
Antiquities lost
 
Lost to the Nile
 
A sudden slip
 
A fall on the tile
 
[Pré-Refrão]

F
Firstly do no harm
                        C
Then put your seatbelt on
 
[Refrão]

        G  C
Buckle up
        G  C
Buckle up
        G  C
Buckle up
        G  C
Buckle up
00:00 / 00:00
Outros vídeos desta música
Repetir
Outros vídeos desta música
Composição de Stone Gossard
Colaboração e revisão:
  • Thiago Almeida
76 exibições
    • ½ Tom
    • A
    • Bb
    • B
    • C
    • Db
    • D
    • Eb
    • E
    • F
    • F#
    • G
    • Ab
  • Adicionar à lista

    0 comentários

    Ver todos os comentários

    Conseguiu tocar?

    0 Tocaram 0 Ainda não

    Grave um vídeo tocando Buckle Up e nos envie!

    Entre para oCifra Club PRO

    Tenha acesso a benefícios exclusivos no App e no Site

    • Chega de anúncios

    • Prioridade de compra em lançamentos

    • Mais recursos no app do Afinador

    • Atendimento Prioritário

    • Descontos nos produtos Cifra Club

    • Ajude a produzir mais conteúdo

    00:00 / 00:00

    Cifra Club Pro

    Aproveite o Cifra Club com benefícios exclusivos e sem anúncios
    Cifra Club Pro
    Aproveite o Cifra Club com benefícios exclusivos e sem anúncios
    OK